0
SECTION
2
HEADER
9
$INSUNITS
70
4
9
$ACADVER
1
AC1014
9
$HANDSEED
5
FFFF
0
ENDSEC
0
SECTION
2
TABLES
0
TABLE
2
VPORT
5
8
100
AcDbSymbolTable
0
ENDTAB
0
TABLE
2
LTYPE
5
5
100
AcDbSymbolTable
0
LTYPE
5
14
100
AcDbSymbolTableRecord
100
AcDbLinetypeTableRecord
2
BYBLOCK
70
0
0
LTYPE
5
15
100
AcDbSymbolTableRecord
100
AcDbLinetypeTableRecord
2
BYLAYER
70
0
0
LTYPE
5
16
100
AcDbSymbolTableRecord
100
AcDbLinetypeTableRecord
2
DASHED
70
0
3
Dashed __ __ __ __ __ __ __ __ __ __ __ __ __ _
72
65
73
2
40
0.75
49
0.5
74
0
49
-0.25
74
0
0
ENDTAB
0
TABLE
2
LAYER
5
2
100
AcDbSymbolTable
70
3
0
LAYER
5
50
100
AcDbSymbolTableRecord
100
AcDbLayerTableRecord
2
1
70
0
62
7
6
DASHED
0
LAYER
5
51
100
AcDbSymbolTableRecord
100
AcDbLayerTableRecord
2
0
70
0
62
7
6
CONTINUOUS
0
ENDTAB
0
TABLE
2
STYLE
5
3
100
AcDbSymbolTable
70
1
0
STYLE
5
11
100
AcDbSymbolTableRecord
100
AcDbTextStyleTableRecord
2
STANDARD
70
0
0
ENDTAB
0
TABLE
2
VIEW
5
6
100
AcDbSymbolTable
70
0
0
ENDTAB
0
TABLE
2
UCS
5
7
100
AcDbSymbolTable
70
0
0
ENDTAB
0
TABLE
2
APPID
5
9
100
AcDbSymbolTable
70
2
0
APPID
5
12
100
AcDbSymbolTableRecord
100
AcDbRegAppTableRecord
2
ACAD
70
0
0
ENDTAB
0
TABLE
2
DIMSTYLE
5
A
100
AcDbSymbolTable
70
1
0
ENDTAB
0
TABLE
2
BLOCK_RECORD
5
1
100
AcDbSymbolTable
70
1
0
BLOCK_RECORD
5
1F
100
AcDbSymbolTableRecord
100
AcDbBlockTableRecord
2
*MODEL_SPACE
0
BLOCK_RECORD
5
1B
100
AcDbSymbolTableRecord
100
AcDbBlockTableRecord
2
*PAPER_SPACE
0
ENDTAB
0
ENDSEC
0
SECTION
2
BLOCKS
0
BLOCK
5
20
100
AcDbEntity
100
AcDbBlockBegin
2
*MODEL_SPACE
0
ENDBLK
5
21
100
AcDbEntity
100
AcDbBlockEnd
0
BLOCK
5
1C
100
AcDbEntity
100
AcDbBlockBegin
2
*PAPER_SPACE
0
ENDBLK
5
1D
100
AcDbEntity
100
AcDbBlockEnd
0
ENDSEC
0
SECTION
2
ENTITIES
0
LWPOLYLINE
5
100
100
AcDbEntity
8
0
100
AcDbPolyline
90
4
70
1
43
0.0
10
-259.62310601229365
20
-59.732233047033745
10
-224.26776695296627
20
-24.37689398770631
42
-0.99999999999999989
10
-220.73223304703359
20
-27.912427893639066
10
-256.08757210636099
20
-63.267766952966383
42
-0.99999999999999989
0
LWPOLYLINE
5
101
100
AcDbEntity
8
0
100
AcDbPolyline
90
4
70
1
43
0.0
10
-239.62310601229362
20
-59.732233047033745
10
-204.26776695296627
20
-24.37689398770631
42
-0.99999999999999989
10
-200.73223304703359
20
-27.912427893639066
10
-236.08757210636099
20
-63.267766952966383
42
-0.99999999999999989
0
LWPOLYLINE
5
102
100
AcDbEntity
8
0
100
AcDbPolyline
90
4
70
1
43
0.0
10
-219.62310601229362
20
-59.732233047033745
10
-184.26776695296627
20
-24.37689398770631
42
-0.99999999999999989
10
-180.73223304703359
20
-27.912427893639066
10
-216.08757210636099
20
-63.267766952966383
42
-0.99999999999999989
0
LWPOLYLINE
5
103
100
AcDbEntity
8
0
100
AcDbPolyline
90
4
70
1
43
0.0
10
-199.62310601229362
20
-59.732233047033745
10
-164.26776695296627
20
-24.37689398770631
42
-0.99999999999999989
10
-160.73223304703359
20
-27.912427893639066
10
-196.08757210636099
20
-63.267766952966383
42
-0.99999999999999989
0
LWPOLYLINE
5
104
100
AcDbEntity
8
0
100
AcDbPolyline
90
4
70
1
43
0.0
10
-179.62310601229362
20
-59.732233047033745
10
-144.26776695296627
20
-24.376893987706328
42
-0.99999999999999989
10
-140.73223304703356
20
-27.912427893639066
10
-176.08757210636099
20
-63.267766952966383
42
-0.99999999999999989
0
LWPOLYLINE
5
105
100
AcDbEntity
8
0
100
AcDbPolyline
90
4
70
1
43
0.0
10
-159.62310601229359
20
-59.732233047033745
10
-124.26776695296627
20
-24.376893987706328
42
-0.99999999999999989
10
-120.73223304703355
20
-27.912427893639066
10
-156.08757210636102
20
-63.267766952966369
42
-0.99999999999999989
0
LWPOLYLINE
5
106
100
AcDbEntity
8
0
100
AcDbPolyline
90
4
70
1
43
0.0
10
-139.62310601229359
20
-59.732233047033745
10
-104.26776695296627
20
-24.376893987706328
42
-0.99999999999999989
10
-100.73223304703355
20
-27.912427893639066
10
-136.08757210636102
20
-63.267766952966369
42
-0.99999999999999989
0
LWPOLYLINE
5
107
100
AcDbEntity
8
0
100
AcDbPolyline
90
4
70
1
43
0.0
10
-119.6231060122936
20
-59.732233047033745
10
-84.267766952966269
20
-24.376893987706328
42
-0.99999999999999989
10
-80.732233047033546
20
-27.912427893639066
10
-116.08757210636101
20
-63.267766952966369
42
-0.99999999999999989
0
LWPOLYLINE
5
108
100
AcDbEntity
8
0
100
AcDbPolyline
90
4
70
1
43
0.0
10
-99.623106012293604
20
-59.732233047033745
10
-64.267766915713409
20
-24.376893950453429
42
-0.99999998946328772
10
-60.732233047033546
20
-27.912427893639062
10
-96.087572106361009
20
-63.267766952966369
42
-0.99999999999999989
0
LWPOLYLINE
5
109
100
AcDbEntity
8
0
100
AcDbPolyline
90
4
70
1
43
0.0
10
-79.623106012293604
20
-59.732233047033745
10
-44.267766952966284
20
-24.376893987706332
42
-0.99999999999999989
10
-40.732233047033553
20
-27.912427893639062
10
-76.087572106361009
20
-63.267766952966369
42
-0.99999999999999989
0
LWPOLYLINE
5
110
100
AcDbEntity
8
0
100
AcDbPolyline
90
4
70
1
43
0.0
10
-59.623106012293604
20
-59.732233047033745
10
-24.267766952966291
20
-24.376893987706332
42
-0.99999999999999989
10
-20.732233047033549
20
-27.912427893639062
10
-56.087572106361009
20
-63.267766952966369
42
-0.99999999999999989
0
LWPOLYLINE
5
111
100
AcDbEntity
8
0
100
AcDbPolyline
90
4
70
1
43
0.0
10
-259.62310601229365
20
-119.73223304703374
10
-224.26776697930808
20
-84.376894014048091
42
-1.0000000074505804
10
-220.73223304703362
20
-87.912427893639077
10
-256.08757210636105
20
-123.26776695296637
42
-0.99999999999999989
0
LWPOLYLINE
5
112
100
AcDbEntity
8
0
100
AcDbPolyline
90
4
70
1
43
0.0
10
-239.62310601229362
20
-119.73223304703374
10
-204.26776697930808
20
-84.376894014048091
42
-1.0000000074505804
10
-200.73223304703362
20
-87.912427893639077
10
-236.08757210636105
20
-123.26776695296637
42
-0.99999999999999989
0
LWPOLYLINE
5
113
100
AcDbEntity
8
0
100
AcDbPolyline
90
4
70
1
43
0.0
10
-219.62310601229362
20
-119.73223304703374
10
-184.26776695296633
20
-84.376893987706325
42
-0.99999999999999989
10
-180.73223304703356
20
-87.912427893639062
10
-216.08757210636094
20
-123.26776695296637
42
-0.99999999999999989
0
LWPOLYLINE
5
114
100
AcDbEntity
8
0
100
AcDbPolyline
90
4
70
1
43
0.0
10
-199.62310601229362
20
-119.73223304703374
10
-164.26776695296633
20
-84.376893987706325
42
-0.99999999999999989
10
-160.73223304703356
20
-87.912427893639062
10
-196.08757210636094
20
-123.26776695296637
42
-0.99999999999999989
0
LWPOLYLINE
5
115
100
AcDbEntity
8
0
100
AcDbPolyline
90
4
70
1
43
0.0
10
-179.62310601229362
20
-119.73223304703374
10
-144.26776695296633
20
-84.376893987706296
42
-0.99999999999999989
10
-140.73223304703356
20
-87.912427893639062
10
-176.08757210636094
20
-123.26776695296637
42
-0.99999999999999989
0
LWPOLYLINE
5
116
100
AcDbEntity
8
0
100
AcDbPolyline
90
4
70
1
43
0.0
10
-159.62310601229362
20
-119.73223304703374
10
-124.26776695296631
20
-84.376893987706296
42
-0.99999999999999989
10
-120.73223304703355
20
-87.912427893639062
10
-156.08757210636105
20
-123.26776695296637
42
-0.99999999999999989
0
LWPOLYLINE
5
117
100
AcDbEntity
8
0
100
AcDbPolyline
90
4
70
1
43
0.0
10
-139.62310601229362
20
-119.73223304703374
10
-104.26776695296631
20
-84.376893987706296
42
-0.99999999999999989
10
-100.73223304703355
20
-87.912427893639062
10
-136.08757210636105
20
-123.26776695296637
42
-0.99999999999999989
0
LWPOLYLINE
5
118
100
AcDbEntity
8
0
100
AcDbPolyline
90
4
70
1
43
0.0
10
-119.62310601229362
20
-119.73223304703374
10
-84.267766952966312
20
-84.376893987706296
42
-0.99999999999999989
10
-80.732233047033546
20
-87.912427893639062
10
-116.08757210636107
20
-123.26776695296637
42
-0.99999999999999989
0
LWPOLYLINE
5
119
100
AcDbEntity
8
0
100
AcDbPolyline
90
4
70
1
43
0.0
10
-99.623106012293619
20
-119.73223304703374
10
-64.267766952966298
20
-84.376893987706325
42
-0.99999999999999989
10
-60.73223304703356
20
-87.912427893639062
10
-96.087572106361065
20
-123.26776695296637
42
-0.99999999999999989
0
LWPOLYLINE
5
120
100
AcDbEntity
8
0
100
AcDbPolyline
90
4
70
1
43
0.0
10
-79.623106012293619
20
-119.73223304703374
10
-44.267766952966312
20
-84.376893987706325
42
-0.99999999999999989
10
-40.73223304703356
20
-87.912427893639062
10
-76.087572106361023
20
-123.26776695296637
42
-0.99999999999999989
0
LWPOLYLINE
5
121
100
AcDbEntity
8
0
100
AcDbPolyline
90
4
70
1
43
0.0
10
-59.623106012293619
20
-119.73223304703374
10
-24.267766952966312
20
-84.376893987706325
42
-0.99999999999999989
10
-20.732233047033564
20
-87.912427893639062
10
-56.08757210636103
20
-123.26776695296637
42
-0.99999999999999989
0
LWPOLYLINE
5
122
100
AcDbEntity
8
0
100
AcDbPolyline
90
4
70
1
43
0.0
10
-259.62310601229365
20
-179.73223304703373
10
-224.26776697930808
20
-144.37689401404808
42
-1.0000000074505804
10
-220.73223304703362
20
-147.91242789363909
10
-256.08757210636111
20
-183.26776695296638
42
-0.99999999999999989
0
LWPOLYLINE
5
123
100
AcDbEntity
8
0
100
AcDbPolyline
90
4
70
1
43
0.0
10
-239.62310601229362
20
-179.73223304703373
10
-204.26776697930808
20
-144.37689401404808
42
-1.0000000074505804
10
-200.73223304703362
20
-147.91242789363909
10
-236.08757210636114
20
-183.26776695296638
42
-0.99999999999999989
0
LWPOLYLINE
5
124
100
AcDbEntity
8
0
100
AcDbPolyline
90
4
70
1
43
0.0
10
-219.62310601229362
20
-179.73223304703373
10
-184.26776697930808
20
-144.37689401404808
42
-1.0000000074505804
10
-180.73223304703362
20
-147.91242789363909
10
-216.08757210636114
20
-183.26776695296638
42
-0.99999999999999989
0
LWPOLYLINE
5
125
100
AcDbEntity
8
0
100
AcDbPolyline
90
4
70
1
43
0.0
10
-199.62310601229362
20
-179.73223304703373
10
-164.26776697930808
20
-144.37689401404808
42
-1.0000000074505804
10
-160.73223304703362
20
-147.91242789363909
10
-196.08757210636114
20
-183.26776695296638
42
-0.99999999999999989
0
LWPOLYLINE
5
126
100
AcDbEntity
8
0
100
AcDbPolyline
90
4
70
1
43
0.0
10
-179.62310601229362
20
-179.73223304703373
10
-144.26776695296633
20
-144.37689398770632
42
-0.99999999999999989
10
-140.73223304703359
20
-147.91242789363906
10
-176.08757210636114
20
-183.26776695296638
42
-0.99999999999999989
0
LWPOLYLINE
5
127
100
AcDbEntity
8
0
100
AcDbPolyline
90
4
70
1
43
0.0
10
-159.62310601229365
20
-179.73223304703373
10
-124.26776695296631
20
-144.37689398770632
42
-0.99999999999999989
10
-120.73223304703359
20
-147.91242789363906
10
-156.08757210636105
20
-183.26776695296638
42
-0.99999999999999989
0
LWPOLYLINE
5
128
100
AcDbEntity
8
0
100
AcDbPolyline
90
4
70
1
43
0.0
10
-139.62310601229365
20
-179.73223304703373
10
-104.26776695296631
20
-144.37689398770632
42
-0.99999999999999989
10
-100.73223304703359
20
-147.91242789363906
10
-136.08757210636105
20
-183.26776695296638
42
-0.99999999999999989
0
LWPOLYLINE
5
129
100
AcDbEntity
8
0
100
AcDbPolyline
90
4
70
1
43
0.0
10
-119.62310601229363
20
-179.73223304703373
10
-84.267766952966312
20
-144.37689398770632
42
-0.99999999999999989
10
-80.732233047033588
20
-147.91242789363906
10
-116.08757210636105
20
-183.26776695296638
42
-0.99999999999999989
0
LWPOLYLINE
5
130
100
AcDbEntity
8
0
100
AcDbPolyline
90
4
70
1
43
0.0
10
-99.623106012293633
20
-179.73223304703373
10
-64.267766952966312
20
-144.37689398770632
42
-0.99999999999999989
10
-60.732233047033581
20
-147.91242789363906
10
-96.087572106361051
20
-183.26776695296638
42
-0.99999999999999989
0
LWPOLYLINE
5
131
100
AcDbEntity
8
0
100
AcDbPolyline
90
4
70
1
43
0.0
10
-79.623106012293633
20
-179.73223304703373
10
-44.267766952966312
20
-144.37689398770632
42
-0.99999999999999989
10
-40.732233047033581
20
-147.91242789363906
10
-76.087572080019285
20
-183.2677669266246
42
-1.0000000074505804
0
LWPOLYLINE
5
132
100
AcDbEntity
8
0
100
AcDbPolyline
90
4
70
1
43
0.0
10
-59.623106012293633
20
-179.73223304703373
10
-24.26776695296633
20
-144.37689398770632
42
-0.99999999999999989
10
-20.732233047033581
20
-147.91242789363906
10
-56.087572080019285
20
-183.2677669266246
42
-1.0000000074505804
0
CIRCLE
5
133
100
AcDbEntity
8
0
100
AcDbCircle
10
-9.9999999999999662
20
-164.00000000000003
30
0
40
3.0000000000000004
210
0
220
0
230
1
0
CIRCLE
5
134
100
AcDbEntity
8
0
100
AcDbCircle
10
-272.25000000000006
20
-44.000000000000021
30
0
40
3.0000000000000071
210
0
220
0
230
1
0
CIRCLE
5
135
100
AcDbEntity
8
0
100
AcDbCircle
10
-9.999999999999968
20
-44.000000000000021
30
0
40
3.0000000000000004
210
0
220
0
230
1
0
CIRCLE
5
136
100
AcDbEntity
8
0
100
AcDbCircle
10
-272.25000000000006
20
-164.00000000000003
30
0
40
3.0000000000000071
210
0
220
0
230
1
0
LWPOLYLINE
5
137
100
AcDbEntity
8
0
100
AcDbPolyline
90
8
70
1
43
0.0
10
-282.25000000000006
20
-15
10
-282.25000000000006
20
-192.99999999999994
10
-271.25000000000006
20
-203.99999999999994
10
-10.999999999999979
20
-204.00000000000003
10
3.5527136788005009e-14
20
-193
10
3.5527136788005009e-14
20
-15.000000000000036
10
-10.999999999999979
20
-4.0000000000000213
10
-271.25000000000006
20
-3.9999999999999858
0
ENDSEC
0
SECTION
2
OBJECTS
0
DICTIONARY
5
C
100
AcDbDictionary
3
ACAD_GROUP
350
D
3
ACAD_MLINESTYLE
350
17
0
DICTIONARY
5
D
100
AcDbDictionary
0
DICTIONARY
5
1A
330
C
100
AcDbDictionary
0
DICTIONARY
5
17
100
AcDbDictionary
0
ENDSEC
0
EOF
