0
SECTION
2
HEADER
9
$INSUNITS
70
4
9
$ACADVER
1
AC1014
9
$HANDSEED
5
FFFF
0
ENDSEC
0
SECTION
2
TABLES
0
TABLE
2
VPORT
5
8
100
AcDbSymbolTable
0
ENDTAB
0
TABLE
2
LTYPE
5
5
100
AcDbSymbolTable
0
LTYPE
5
14
100
AcDbSymbolTableRecord
100
AcDbLinetypeTableRecord
2
BYBLOCK
70
0
0
LTYPE
5
15
100
AcDbSymbolTableRecord
100
AcDbLinetypeTableRecord
2
BYLAYER
70
0
0
LTYPE
5
16
100
AcDbSymbolTableRecord
100
AcDbLinetypeTableRecord
2
DASHED
70
0
3
Dashed __ __ __ __ __ __ __ __ __ __ __ __ __ _
72
65
73
2
40
0.75
49
0.5
74
0
49
-0.25
74
0
0
ENDTAB
0
TABLE
2
LAYER
5
2
100
AcDbSymbolTable
70
3
0
LAYER
5
50
100
AcDbSymbolTableRecord
100
AcDbLayerTableRecord
2
1
70
0
62
7
6
DASHED
0
LAYER
5
51
100
AcDbSymbolTableRecord
100
AcDbLayerTableRecord
2
0
70
0
62
7
6
CONTINUOUS
0
ENDTAB
0
TABLE
2
STYLE
5
3
100
AcDbSymbolTable
70
1
0
STYLE
5
11
100
AcDbSymbolTableRecord
100
AcDbTextStyleTableRecord
2
STANDARD
70
0
0
ENDTAB
0
TABLE
2
VIEW
5
6
100
AcDbSymbolTable
70
0
0
ENDTAB
0
TABLE
2
UCS
5
7
100
AcDbSymbolTable
70
0
0
ENDTAB
0
TABLE
2
APPID
5
9
100
AcDbSymbolTable
70
2
0
APPID
5
12
100
AcDbSymbolTableRecord
100
AcDbRegAppTableRecord
2
ACAD
70
0
0
ENDTAB
0
TABLE
2
DIMSTYLE
5
A
100
AcDbSymbolTable
70
1
0
ENDTAB
0
TABLE
2
BLOCK_RECORD
5
1
100
AcDbSymbolTable
70
1
0
BLOCK_RECORD
5
1F
100
AcDbSymbolTableRecord
100
AcDbBlockTableRecord
2
*MODEL_SPACE
0
BLOCK_RECORD
5
1B
100
AcDbSymbolTableRecord
100
AcDbBlockTableRecord
2
*PAPER_SPACE
0
ENDTAB
0
ENDSEC
0
SECTION
2
BLOCKS
0
BLOCK
5
20
100
AcDbEntity
100
AcDbBlockBegin
2
*MODEL_SPACE
0
ENDBLK
5
21
100
AcDbEntity
100
AcDbBlockEnd
0
BLOCK
5
1C
100
AcDbEntity
100
AcDbBlockBegin
2
*PAPER_SPACE
0
ENDBLK
5
1D
100
AcDbEntity
100
AcDbBlockEnd
0
ENDSEC
0
SECTION
2
ENTITIES
0
LWPOLYLINE
5
100
100
AcDbEntity
8
0
100
AcDbPolyline
90
4
70
1
43
0.0
10
-41.059321360777133
20
0.82957001929905305
10
-50.951712902081098
20
24.900066164165132
10
-46.32703896372383
20
26.800695261037816
10
-36.434647422419872
20
2.7301991161717432
0
LWPOLYLINE
5
101
100
AcDbEntity
8
0
100
AcDbPolyline
90
4
70
1
43
0.0
10
24.878250336545907
20
5.9542380894763971
10
19.569757906862574
20
-0.44317586424454936
10
4.2086252593402929
20
12.30329590710372
10
9.5171176890236318
20
18.70070986082467
0
LWPOLYLINE
5
102
100
AcDbEntity
8
0
100
AcDbPolyline
90
4
70
1
43
0.0
10
-14.152112310608342
20
29.488726255214758
10
-14.152112310608342
20
40.276742649604827
10
7.2629053081063111
20
40.276742649604827
10
7.2629053081063111
20
29.488726255214758
0
LWPOLYLINE
5
103
100
AcDbEntity
8
0
100
AcDbPolyline
90
4
70
1
43
0.0
10
-15.810441199886112
20
-16.282062703651818
42
0.88124709410268265
10
-13.62281505199806
20
-23.911105044157782
42
0.8812470941026832
10
-5.9284047543590308
20
-21.965842756510522
10
-7.0802362752167722
20
-12.535928433063116
0
LWPOLYLINE
5
104
100
AcDbEntity
8
0
100
AcDbPolyline
90
4
70
1
43
0.0
10
26.584180092443969
20
-21.894932484714701
10
32.287009992954061
20
-5.9870385517128533
10
37.734543849473347
20
-7.9399280474461751
10
32.031713948963251
20
-23.847821980448028
0
LWPOLYLINE
5
105
100
AcDbEntity
8
0
100
AcDbPolyline
90
4
70
1
43
0.0
10
-18.210854208877059
20
18.563453260654679
10
-8.9108018983914619
20
20.789106805044408
10
-3.2649399159023362
20
10.991797927845685
10
-18.809754307033344
20
7.2716714068912456
0
LWPOLYLINE
5
106
100
AcDbEntity
8
0
100
AcDbPolyline
90
4
70
1
43
0.0
10
-15.675663974651368
20
77.864680737601432
10
-6.0588338777453554
20
76.246344324252192
10
-5.4814422622939141
20
67.429340348625843
42
-0.99999999999999989
10
-19.107013781687456
20
69.722274540072505
0
LWPOLYLINE
5
107
100
AcDbEntity
8
0
100
AcDbPolyline
90
10
70
1
43
0.0
10
0.82357541706572079
20
-9.043906481497805
10
-2.579207539851077
20
-3.5798523885639808
10
0.98493277339845864
20
-1.3602557836054641
10
3.8542856999387332
20
-5.9677490621482345
42
0.99999999999999989
10
8.0003809978383735
20
-3.3857353819229901
10
5.1310280712980951
20
1.2217578966197569
10
8.6951683845476317
20
3.4413545015782745
10
11.502653976866881
20
-1.0667946621474955
10
11.502653965378817
20
-10.870548481143068
42
-1.0000000074505804
10
9.0267283868348009
20
-12.412450767953612
0
ELLIPSE
5
108
100
AcDbEntity
8
0
100
AcDbEllipse
10
1.6401573970896628
20
-45.310563988439597
30
0
11
-0.84979182088225103
21
4.3052893448697347
31
0.0
40
0.73523793390566328
41
2.2733876026376811
42
6.6866092875835053
0
ELLIPSE
5
109
100
AcDbEntity
8
0
100
AcDbEllipse
10
-2.2325551948328242
20
-45.334936491245969
30
0
11
0.48159832164841121
21
4.342141580115749
31
0.0
40
0.73870273460625502
41
2.1275585186709978
42
3.9574527914668418
0
ARC
5
110
100
AcDbEntity
8
0
100
AcDbCircle
10
-5.4401070541118504
20
-44.979178494062509
30
0
40
2.3595226338281297
210
-0
220
0
230
1
100
AcDbArc
50
-84.407567444298763
51
71.749651875722307
0
ELLIPSE
5
111
100
AcDbEntity
8
0
100
AcDbEllipse
10
-2.2325551948328242
20
-45.334936491245969
30
0
11
0.48159832164841121
21
4.342141580115749
31
0.0
40
0.73870273460625502
41
5.8258249605790908
42
7.2972194420983838
0
LWPOLYLINE
5
112
100
AcDbEntity
8
0
100
AcDbPolyline
90
4
70
1
43
0.0
10
10.991068012368249
20
72.434645865892321
10
6.243682231650558
20
92.766737801358573
42
-3.2966629547095558
10
11.112717006727216
20
93.903619659378336
10
15.860102787444923
20
73.571527723911871
42
-3.2966629547095798
0
LWPOLYLINE
5
113
100
AcDbEntity
8
0
100
AcDbPolyline
90
4
70
1
43
0.0
10
-10.762006585577913
20
98.963899848084537
10
-11.066567887796898
20
99.895194151966749
42
-2.9214741104096098
10
-6.3142415542308505
20
101.44934807590562
10
-6.0577428811737946
20
100.66502074531246
42
-2.9197074224576993
0
ARC
5
114
100
AcDbEntity
8
0
100
AcDbCircle
10
3.3980029141406565
20
-80.726800177126506
30
0
40
3.1839117062677538
210
0
220
0
230
1
100
AcDbArc
50
192.04867966617772
51
347.95132033382305
0
ELLIPSE
5
115
100
AcDbEntity
8
0
100
AcDbEllipse
10
3.398002914140656
20
-83.655200718920042
30
0
11
0
21
4.7538443901518699
31
0.0
40
0.74488048623622261
41
1.0744677481764031
42
5.2087175590031887
0
ARC
5
116
100
AcDbEntity
8
0
100
AcDbCircle
10
-9.6262143717031137
20
-80.726800177126506
30
0
40
3.1839117062677551
210
0
220
0
230
1
100
AcDbArc
50
173.655038570117
51
326.06332013504124
0
ELLIPSE
5
117
100
AcDbEntity
8
0
100
AcDbEllipse
10
-10.601451408636429
20
-83.655200718920042
30
0
11
1.2303854656250817
21
4.5918610706070968
31
0.0
40
0.74488048623622272
41
0.99163204919615711
42
5.1577258171992852
0
CIRCLE
5
118
100
AcDbEntity
8
0
100
AcDbCircle
10
3.3980029141406569
20
-80.338716485169414
30
0
40
1.0090175990883385
210
0
220
-0
230
1
0
SPLINE
5
119
100
AcDbEntity
8
0
100
AcDbSpline
70
4
71
5
72
13
73
7
74
0
42
0.000000001
43
0.0000000001
44
0.0000000001
40
-0.72372353229777342
40
-0.72372353229777342
40
-0.72372353229777342
40
-0.72372353229777342
40
-0.72372353229777342
40
-0.72372353229777342
40
-0.72222222222222165
40
-0.71809549241656034
40
-0.71809549241656034
40
-0.71809549241656034
40
-0.71809549241656034
40
-0.71809549241656034
40
-0.71809549241656034
41
1
41
1
41
1
41
1
41
1
41
1
41
1
10
3.3645774968199538e-14
20
93.556851355284394
30
0
10
-0.0017202864907554863
20
93.629700531860067
30
0
10
-0.0073025869372530553
20
93.903231279160266
30
0
10
-0.0096338274660344135
20
94.17840540661129
30
0
10
-0.0087223807578281302
20
94.455229838900124
30
0
10
-0.0046443169640312514
20
94.733673639606877
30
0
10
-2.9526294603732239e-13
20
94.938688902099074
30
0
0
SPLINE
5
120
100
AcDbEntity
8
0
100
AcDbSpline
70
4
71
5
72
13
73
7
74
0
42
0.000000001
43
0.0000000001
44
0.0000000001
40
0.71809549241656034
40
0.71809549241656034
40
0.71809549241656034
40
0.71809549241656034
40
0.71809549241656034
40
0.71809549241656034
40
0.72222222222222165
40
0.72372353229777353
40
0.72372353229777353
40
0.72372353229777353
40
0.72372353229777353
40
0.72372353229777353
40
0.72372353229777353
41
1
41
1
41
1
41
1
41
1
41
1
41
1
10
3.5431347526065915e-13
20
94.938688902099074
30
0
10
0.0046443169640901722
20
94.733673639606877
30
0
10
0.0087223807578869581
20
94.455229838900124
30
0
10
0.0096338274660930263
20
94.178405406611304
30
0
10
0.0073025869373113238
20
93.903231279160281
30
0
10
0.0017202864908132829
20
93.629700531860067
30
0
10
2.3913163116340286e-14
20
93.556851355284394
30
0
0
SPLINE
5
121
100
AcDbEntity
8
0
100
AcDbSpline
70
6
71
5
72
56
73
50
74
0
42
0.000000001
43
0.0000000001
44
0.0000000001
40
0
40
0
40
0
40
0
40
0
40
0
40
0.022222222222222223
40
0.044444444444444446
40
0.066666666666666666
40
0.088888888888888892
40
0.11111111111111112
40
0.13333333333333333
40
0.15555555555555556
40
0.17777777777777778
40
0.20000000000000001
40
0.22222222222222224
40
0.24444444444444446
40
0.26666666666666666
40
0.28888888888888886
40
0.31111111111111106
40
0.33333333333333326
40
0.35555555555555546
40
0.37777777777777766
40
0.39999999999999986
40
0.42222222222222205
40
0.44444444444444425
40
0.46666666666666645
40
0.48888888888888865
40
0.51111111111111085
40
0.5333333333333331
40
0.55555555555555536
40
0.57777777777777761
40
0.59999999999999987
40
0.62222222222222212
40
0.64444444444444438
40
0.66666666666666663
40
0.68888888888888888
40
0.71111111111111114
40
0.73333333333333339
40
0.75555555555555565
40
0.7777777777777779
40
0.80000000000000016
40
0.82222222222222241
40
0.84444444444444466
40
0.86666666666666692
40
0.88888888888888917
40
0.91111111111111143
40
0.93333333333333368
40
0.95555555555555594
40
0.97777777777777819
40
1
40
1
40
1
40
1
40
1
40
1
41
1
41
1
41
1
41
1
41
1
41
1
41
1
41
1
41
1
41
1
41
1
41
1
41
1
41
1
41
1
41
1
41
1
41
1
41
1
41
1
41
1
41
1
41
1
41
1
41
1
41
1
41
1
41
1
41
1
41
1
41
1
41
1
41
1
41
1
41
1
41
1
41
1
41
1
41
1
41
1
41
1
41
1
41
1
41
1
41
1
41
1
41
1
41
1
41
1
41
1
10
-2.9391263482479912
20
-57.441261475663332
30
0
10
-2.7928118976536647
20
-57.441305312075023
30
0
10
-2.5036238218057099
20
-57.457160301950871
30
0
10
-2.0794672533200247
20
-57.52848035650824
30
0
10
-1.527312220798859
20
-57.704960680709299
30
0
10
-0.83635234223881993
20
-57.982978828399567
30
0
10
-0.12021153590989252
20
-58.226246916375956
30
0
10
0.64013267892809467
20
-58.356197778136135
30
0
10
1.4507166410727659
20
-58.341465521704059
30
0
10
2.2996797671252165
20
-58.212643834051875
30
0
10
3.1586365113635111
20
-58.036159426540401
30
0
10
3.9822695772800816
20
-57.896309257682319
30
0
10
4.7095070223350373
20
-57.87484366516189
30
0
10
5.2617707570893959
20
-58.029900818477664
30
0
10
5.5490591532693454
20
-58.380471406839632
30
0
10
5.4997928967204723
20
-58.91357304009145
30
0
10
5.090188471410702
20
-59.587114469293297
30
0
10
4.3650473898206714
20
-60.335692715190739
30
0
10
3.4084373150589458
20
-61.082830739584409
30
0
10
2.3231866725137262
20
-61.752508291234768
30
0
10
1.2036851733752949
20
-62.280884568248574
30
0
10
0.11916404083366519
20
-62.628113909901764
30
0
10
-0.92526435043249255
20
-62.789849437244087
30
0
10
-1.9770355836892681
20
-62.810235457514942
30
0
10
-3.0039575118873305
20
-62.751846302957695
30
0
10
-3.9651710155051632
20
-62.677833741505104
30
0
10
-4.8334877418280806
20
-62.624388416962127
30
0
10
-5.6151971378656773
20
-62.591491040200665
30
0
10
-6.4233666565247605
20
-62.492273365007058
30
0
10
-7.3956937515678645
20
-62.204737065987182
30
0
10
-8.4946507083280061
20
-61.709838051136686
30
0
10
-9.6227057499849593
20
-61.028426777798245
30
0
10
-10.630969450854623
20
-60.225684291343683
30
0
10
-11.373932240261404
20
-59.387419110562675
30
0
10
-11.740448813587525
20
-58.60868891551619
30
0
10
-11.704588727501875
20
-57.976818173693957
30
0
10
-11.33517027666448
20
-57.557989274780169
30
0
10
-10.741469082342626
20
-57.384920278604469
30
0
10
-10.033635232708457
20
-57.444654794596737
30
0
10
-9.2762950344574939
20
-57.665476778199121
30
0
10
-8.5000406524649215
20
-57.943539424541513
30
0
10
-7.7131045812454255
20
-58.170581785348659
30
0
10
-6.9127845308462081
20
-58.260645942541565
30
0
10
-6.0973016766372998
20
-58.178552604404885
30
0
10
-5.2763823739139273
20
-57.964107451220414
30
0
10
-4.465216744941837
20
-57.700156975884809
30
0
10
-3.8366345219226887
20
-57.527483082376904
30
0
10
-3.3815105253716551
20
-57.456897283480721
30
0
10
-3.0854407988423125
20
-57.441217639251633
30
0
10
-2.9391263482479912
20
-57.441261475663332
30
0
0
CIRCLE
5
122
100
AcDbEntity
8
0
100
AcDbCircle
10
-2.9391263482479908
20
-72.588033633452312
30
0
40
4.5925624587453049
210
0
220
-0
230
1
0
ARC
5
123
100
AcDbEntity
8
0
100
AcDbCircle
10
1.1102230246251565e-14
20
14.000000000016417
30
0
40
34.999999999983586
210
0
220
-0
230
1
100
AcDbArc
50
89.051109609326588
51
90.948890390673355
0
SPLINE
5
124
100
AcDbEntity
8
0
100
AcDbSpline
70
4
71
5
72
13
73
7
74
0
42
0.000000001
43
0.0000000001
44
0.0000000001
40
0.89664065615185784
40
0.89664065615185784
40
0.89664065615185784
40
0.89664065615185784
40
0.89664065615185784
40
0.89664065615185784
40
0.8999999999999988
40
0.90450995605670759
40
0.90450995605670759
40
0.90450995605670759
40
0.90450995605670759
40
0.90450995605670759
40
0.90450995605670759
41
1
41
1
41
1
41
1
41
1
41
1
41
1
10
0.57961765786507757
20
48.99520029047828
30
0
10
0.53938032027991967
20
48.743267696623029
30
0
10
0.44069714595669673
20
48.147634858956835
30
0
10
0.33142537980983766
20
47.539194868968906
30
0
10
0.21109113162005844
20
46.918096826207005
30
0
10
0.079326829215876332
20
46.284726336017492
30
0
10
5.5944832100252029e-15
20
45.917803448548824
30
0
0
SPLINE
5
125
100
AcDbEntity
8
0
100
AcDbSpline
70
4
71
5
72
13
73
7
74
0
42
0.000000001
43
0.0000000001
44
0.0000000001
40
-0.90450995605670759
40
-0.90450995605670759
40
-0.90450995605670759
40
-0.90450995605670759
40
-0.90450995605670759
40
-0.90450995605670759
40
-0.8999999999999988
40
-0.89664065615185784
40
-0.89664065615185784
40
-0.89664065615185784
40
-0.89664065615185784
40
-0.89664065615185784
40
-0.89664065615185784
41
1
41
1
41
1
41
1
41
1
41
1
41
1
10
2.3037127760971998e-14
20
45.917803448548824
30
0
10
-0.079326829215847577
20
46.284726336017492
30
0
10
-0.21109113162002929
20
46.918096826207005
30
0
10
-0.33142537980980813
20
47.539194868968906
30
0
10
-0.44069714595666687
20
48.147634858956835
30
0
10
-0.53938032027988936
20
48.743267696623029
30
0
10
-0.57961765786504693
20
48.99520029047828
30
0
0
LWPOLYLINE
5
126
100
AcDbEntity
8
0
100
AcDbPolyline
90
4
70
1
43
0.0
10
70
20
125
10
-70
20
125
10
-70
20
-125
10
70
20
-125
0
CIRCLE
5
127
100
AcDbEntity
8
0
100
AcDbCircle
10
-9.6262143717031137
20
-80.338716485169414
30
0
40
1.0090175990883377
210
0
220
0
230
1
0
ENDSEC
0
SECTION
2
OBJECTS
0
DICTIONARY
5
C
100
AcDbDictionary
3
ACAD_GROUP
350
D
3
ACAD_MLINESTYLE
350
17
0
DICTIONARY
5
D
100
AcDbDictionary
0
DICTIONARY
5
1A
330
C
100
AcDbDictionary
0
DICTIONARY
5
17
100
AcDbDictionary
0
ENDSEC
0
EOF
