0
SECTION
2
HEADER
9
$INSUNITS
70
4
9
$ACADVER
1
AC1014
9
$HANDSEED
5
FFFF
0
ENDSEC
0
SECTION
2
TABLES
0
TABLE
2
VPORT
5
8
100
AcDbSymbolTable
0
ENDTAB
0
TABLE
2
LTYPE
5
5
100
AcDbSymbolTable
0
LTYPE
5
14
100
AcDbSymbolTableRecord
100
AcDbLinetypeTableRecord
2
BYBLOCK
70
0
0
LTYPE
5
15
100
AcDbSymbolTableRecord
100
AcDbLinetypeTableRecord
2
BYLAYER
70
0
0
LTYPE
5
16
100
AcDbSymbolTableRecord
100
AcDbLinetypeTableRecord
2
DASHED
70
0
3
Dashed __ __ __ __ __ __ __ __ __ __ __ __ __ _
72
65
73
2
40
0.75
49
0.5
74
0
49
-0.25
74
0
0
ENDTAB
0
TABLE
2
LAYER
5
2
100
AcDbSymbolTable
70
3
0
LAYER
5
50
100
AcDbSymbolTableRecord
100
AcDbLayerTableRecord
2
1
70
0
62
7
6
DASHED
0
LAYER
5
51
100
AcDbSymbolTableRecord
100
AcDbLayerTableRecord
2
0
70
0
62
7
6
CONTINUOUS
0
ENDTAB
0
TABLE
2
STYLE
5
3
100
AcDbSymbolTable
70
1
0
STYLE
5
11
100
AcDbSymbolTableRecord
100
AcDbTextStyleTableRecord
2
STANDARD
70
0
0
ENDTAB
0
TABLE
2
VIEW
5
6
100
AcDbSymbolTable
70
0
0
ENDTAB
0
TABLE
2
UCS
5
7
100
AcDbSymbolTable
70
0
0
ENDTAB
0
TABLE
2
APPID
5
9
100
AcDbSymbolTable
70
2
0
APPID
5
12
100
AcDbSymbolTableRecord
100
AcDbRegAppTableRecord
2
ACAD
70
0
0
ENDTAB
0
TABLE
2
DIMSTYLE
5
A
100
AcDbSymbolTable
70
1
0
ENDTAB
0
TABLE
2
BLOCK_RECORD
5
1
100
AcDbSymbolTable
70
1
0
BLOCK_RECORD
5
1F
100
AcDbSymbolTableRecord
100
AcDbBlockTableRecord
2
*MODEL_SPACE
0
BLOCK_RECORD
5
1B
100
AcDbSymbolTableRecord
100
AcDbBlockTableRecord
2
*PAPER_SPACE
0
ENDTAB
0
ENDSEC
0
SECTION
2
BLOCKS
0
BLOCK
5
20
100
AcDbEntity
100
AcDbBlockBegin
2
*MODEL_SPACE
0
ENDBLK
5
21
100
AcDbEntity
100
AcDbBlockEnd
0
BLOCK
5
1C
100
AcDbEntity
100
AcDbBlockBegin
2
*PAPER_SPACE
0
ENDBLK
5
1D
100
AcDbEntity
100
AcDbBlockEnd
0
ENDSEC
0
SECTION
2
ENTITIES
0
LWPOLYLINE
5
100
100
AcDbEntity
8
0
100
AcDbPolyline
90
4
70
1
43
0.0
10
-41.059321360777133
20
0.82957001929905305
10
-50.951712902081098
20
24.900066164165132
10
-46.32703896372383
20
26.800695261037816
10
-36.434647422419872
20
2.7301991161717432
0
LWPOLYLINE
5
101
100
AcDbEntity
8
0
100
AcDbPolyline
90
4
70
1
43
0.0
10
24.878250336545907
20
5.9542380894763971
10
19.569757906862574
20
-0.44317586424454936
10
4.2086252593402929
20
12.30329590710372
10
9.5171176890236318
20
18.70070986082467
0
LWPOLYLINE
5
102
100
AcDbEntity
8
0
100
AcDbPolyline
90
4
70
1
43
0.0
10
-14.152112310608342
20
29.488726255214758
10
-14.152112310608342
20
40.276742649604827
10
7.2629053081063111
20
40.276742649604827
10
7.2629053081063111
20
29.488726255214758
0
LWPOLYLINE
5
103
100
AcDbEntity
8
0
100
AcDbPolyline
90
4
70
1
43
0.0
10
-15.810441199886112
20
-16.282062703651818
42
0.88124709410268265
10
-13.62281505199806
20
-23.911105044157782
42
0.8812470941026832
10
-5.9284047543590308
20
-21.965842756510522
10
-7.0802362752167722
20
-12.535928433063116
0
LWPOLYLINE
5
104
100
AcDbEntity
8
0
100
AcDbPolyline
90
4
70
1
43
0.0
10
26.584180092443969
20
-21.894932484714701
10
32.287009992954061
20
-5.9870385517128533
10
37.734543849473347
20
-7.9399280474461751
10
32.031713948963251
20
-23.847821980448028
0
LWPOLYLINE
5
105
100
AcDbEntity
8
0
100
AcDbPolyline
90
4
70
1
43
0.0
10
-18.210854208877059
20
18.563453260654679
10
-8.9108018983914619
20
20.789106805044408
10
-3.2649399159023362
20
10.991797927845685
10
-18.809754307033344
20
7.2716714068912456
0
LWPOLYLINE
5
106
100
AcDbEntity
8
0
100
AcDbPolyline
90
4
70
1
43
0.0
10
-15.675663974651368
20
77.864680737601432
10
-6.0588338777453554
20
76.246344324252192
10
-5.4814422622939141
20
67.429340348625843
42
-0.99999999999999989
10
-19.107013781687456
20
69.722274540072505
0
LWPOLYLINE
5
107
100
AcDbEntity
8
0
100
AcDbPolyline
90
10
70
1
43
0.0
10
0.82357541706572079
20
-9.043906481497805
10
-2.579207539851077
20
-3.5798523885639808
10
0.98493277339845864
20
-1.3602557836054641
10
3.8542856999387332
20
-5.9677490621482345
42
0.99999999999999989
10
8.0003809978383735
20
-3.3857353819229901
10
5.1310280712980951
20
1.2217578966197569
10
8.6951683845476317
20
3.4413545015782745
10
11.502653976866881
20
-1.0667946621474955
10
11.502653965378817
20
-10.870548481143068
42
-1.0000000074505804
10
9.0267283868348009
20
-12.412450767953612
0
ELLIPSE
5
108
100
AcDbEntity
8
0
100
AcDbEllipse
10
1.6401573970896628
20
-45.310563988439597
30
0
11
-0.84979182088225136
21
4.3052893448697365
31
0.0
40
0.73523793390566328
41
2.2733876026376807
42
6.6866092875835061
0
ELLIPSE
5
109
100
AcDbEntity
8
0
100
AcDbEllipse
10
-2.2325551948328242
20
-45.334936491245969
30
0
11
0.48159832164841121
21
4.342141580115749
31
0.0
40
0.73870273460625502
41
2.1275585186709978
42
3.9574527914668418
0
ARC
5
110
100
AcDbEntity
8
0
100
AcDbCircle
10
-5.4401070541118504
20
-44.979178494062509
30
0
40
2.3595226338281297
210
-0
220
0
230
1
100
AcDbArc
50
-84.407567444298763
51
71.749651875722307
0
ELLIPSE
5
111
100
AcDbEntity
8
0
100
AcDbEllipse
10
-2.2325551948328242
20
-45.334936491245969
30
0
11
0.48159832164841121
21
4.342141580115749
31
0.0
40
0.73870273460625502
41
5.8258249605790908
42
7.2972194420983838
0
LWPOLYLINE
5
112
100
AcDbEntity
8
0
100
AcDbPolyline
90
4
70
1
43
0.0
10
10.991068012368249
20
72.434645865892321
10
6.243682231650558
20
92.766737801358573
42
-3.2966629547095558
10
11.112717006727216
20
93.903619659378336
10
15.860102787444923
20
73.571527723911871
42
-3.2966629547095798
0
LWPOLYLINE
5
113
100
AcDbEntity
8
0
100
AcDbPolyline
90
4
70
1
43
0.0
10
-10.762006585577913
20
98.963899848084537
10
-11.066567887796898
20
99.895194151966749
42
-2.9214741104096098
10
-6.3142415542308505
20
101.44934807590562
10
-6.0577428811737946
20
100.66502074531246
42
-2.9197074224576993
0
CIRCLE
5
114
100
AcDbEntity
8
0
100
AcDbCircle
10
-2.9391263482479908
20
-72.588033633452312
30
0
40
4.5925624587453049
210
0
220
-0
230
1
0
CIRCLE
5
115
100
AcDbEntity
8
0
100
AcDbCircle
10
-9.6262143717031137
20
-80.338716485169414
30
0
40
1.0090175990883377
210
0
220
-0
230
1
0
CIRCLE
5
116
100
AcDbEntity
8
0
100
AcDbCircle
10
3.3980029141406569
20
-80.338716485169414
30
0
40
1.0090175990883385
210
0
220
-0
230
1
0
ARC
5
117
100
AcDbEntity
8
0
100
AcDbCircle
10
-9.6262143717031137
20
-80.726800177126506
30
0
40
3.1839117062677551
210
0
220
0
230
1
100
AcDbArc
50
173.655038570117
51
326.06332013504124
0
ELLIPSE
5
118
100
AcDbEntity
8
0
100
AcDbEllipse
10
-10.601451408636429
20
-83.655200718920042
30
0
11
1.2303854656250817
21
4.5918610706070968
31
0.0
40
0.74488048623622272
41
0.99163204919615711
42
5.1577258171992852
0
ARC
5
119
100
AcDbEntity
8
0
100
AcDbCircle
10
3.3980029141406565
20
-80.726800177126506
30
0
40
3.1839117062677538
210
0
220
0
230
1
100
AcDbArc
50
192.04867966617772
51
347.95132033382305
0
ELLIPSE
5
120
100
AcDbEntity
8
0
100
AcDbEllipse
10
3.398002914140656
20
-83.655200718920042
30
0
11
0
21
4.7538443901518699
31
0.0
40
0.74488048623622261
41
1.0744677481764031
42
5.2087175590031887
0
SPLINE
5
121
100
AcDbEntity
8
0
100
AcDbSpline
70
6
71
5
72
56
73
50
74
0
42
0.000000001
43
0.0000000001
44
0.0000000001
40
0
40
0
40
0
40
0
40
0
40
0
40
0.022222222222222223
40
0.044444444444444446
40
0.066666666666666666
40
0.088888888888888892
40
0.11111111111111112
40
0.13333333333333333
40
0.15555555555555556
40
0.17777777777777778
40
0.20000000000000001
40
0.22222222222222224
40
0.24444444444444446
40
0.26666666666666666
40
0.28888888888888886
40
0.31111111111111106
40
0.33333333333333326
40
0.35555555555555546
40
0.37777777777777766
40
0.39999999999999986
40
0.42222222222222205
40
0.44444444444444425
40
0.46666666666666645
40
0.48888888888888865
40
0.51111111111111085
40
0.5333333333333331
40
0.55555555555555536
40
0.57777777777777761
40
0.59999999999999987
40
0.62222222222222212
40
0.64444444444444438
40
0.66666666666666663
40
0.68888888888888888
40
0.71111111111111114
40
0.73333333333333339
40
0.75555555555555565
40
0.7777777777777779
40
0.80000000000000016
40
0.82222222222222241
40
0.84444444444444466
40
0.86666666666666692
40
0.88888888888888917
40
0.91111111111111143
40
0.93333333333333368
40
0.95555555555555594
40
0.97777777777777819
40
1
40
1
40
1
40
1
40
1
40
1
41
1
41
1
41
1
41
1
41
1
41
1
41
1
41
1
41
1
41
1
41
1
41
1
41
1
41
1
41
1
41
1
41
1
41
1
41
1
41
1
41
1
41
1
41
1
41
1
41
1
41
1
41
1
41
1
41
1
41
1
41
1
41
1
41
1
41
1
41
1
41
1
41
1
41
1
41
1
41
1
41
1
41
1
41
1
41
1
41
1
41
1
41
1
41
1
41
1
41
1
10
-2.9391263482479912
20
-57.441261475663332
30
0
10
-2.7928118976536647
20
-57.441305312075023
30
0
10
-2.5036238218057099
20
-57.457160301950871
30
0
10
-2.0794672533200247
20
-57.52848035650824
30
0
10
-1.527312220798859
20
-57.704960680709299
30
0
10
-0.83635234223881993
20
-57.982978828399567
30
0
10
-0.12021153590989252
20
-58.226246916375956
30
0
10
0.64013267892809467
20
-58.356197778136135
30
0
10
1.4507166410727659
20
-58.341465521704059
30
0
10
2.2996797671252165
20
-58.212643834051875
30
0
10
3.1586365113635111
20
-58.036159426540401
30
0
10
3.9822695772800816
20
-57.896309257682319
30
0
10
4.7095070223350373
20
-57.87484366516189
30
0
10
5.2617707570893959
20
-58.029900818477664
30
0
10
5.5490591532693454
20
-58.380471406839632
30
0
10
5.4997928967204723
20
-58.91357304009145
30
0
10
5.090188471410702
20
-59.587114469293297
30
0
10
4.3650473898206714
20
-60.335692715190739
30
0
10
3.4084373150589458
20
-61.082830739584409
30
0
10
2.3231866725137262
20
-61.752508291234768
30
0
10
1.2036851733752949
20
-62.280884568248574
30
0
10
0.11916404083366519
20
-62.628113909901764
30
0
10
-0.92526435043249255
20
-62.789849437244087
30
0
10
-1.9770355836892681
20
-62.810235457514942
30
0
10
-3.0039575118873305
20
-62.751846302957695
30
0
10
-3.9651710155051632
20
-62.677833741505104
30
0
10
-4.8334877418280806
20
-62.624388416962127
30
0
10
-5.6151971378656773
20
-62.591491040200665
30
0
10
-6.4233666565247605
20
-62.492273365007058
30
0
10
-7.3956937515678645
20
-62.204737065987182
30
0
10
-8.4946507083280061
20
-61.709838051136686
30
0
10
-9.6227057499849593
20
-61.028426777798245
30
0
10
-10.630969450854623
20
-60.225684291343683
30
0
10
-11.373932240261404
20
-59.387419110562675
30
0
10
-11.740448813587525
20
-58.60868891551619
30
0
10
-11.704588727501875
20
-57.976818173693957
30
0
10
-11.33517027666448
20
-57.557989274780169
30
0
10
-10.741469082342626
20
-57.384920278604469
30
0
10
-10.033635232708457
20
-57.444654794596737
30
0
10
-9.2762950344574939
20
-57.665476778199121
30
0
10
-8.5000406524649215
20
-57.943539424541513
30
0
10
-7.7131045812454255
20
-58.170581785348659
30
0
10
-6.9127845308462081
20
-58.260645942541565
30
0
10
-6.0973016766372998
20
-58.178552604404885
30
0
10
-5.2763823739139273
20
-57.964107451220414
30
0
10
-4.465216744941837
20
-57.700156975884809
30
0
10
-3.8366345219226887
20
-57.527483082376904
30
0
10
-3.3815105253716551
20
-57.456897283480721
30
0
10
-3.0854407988423125
20
-57.441217639251633
30
0
10
-2.9391263482479912
20
-57.441261475663332
30
0
0
SPLINE
5
122
100
AcDbEntity
8
0
100
AcDbSpline
70
4
71
5
72
16
73
10
74
0
42
0.000000001
43
0.0000000001
44
0.0000000001
40
0.038937104134936056
40
0.038937104134936056
40
0.038937104134936056
40
0.038937104134936056
40
0.038937104134936056
40
0.038937104134936056
40
0.066666666666666666
40
0.13333333333333333
40
0.20000000000000001
40
0.26666666666666666
40
0.28942825711272829
40
0.28942825711272829
40
0.28942825711272829
40
0.28942825711272829
40
0.28942825711272829
40
0.28942825711272829
41
1
41
1
41
1
41
1
41
1
41
1
41
1
41
1
41
1
41
1
10
-6.4484462271243448
20
-50.014579709075122
30
0
10
-6.9146253221514815
20
-50.105732782060329
30
0
10
-8.4611383307758494
20
-50.470434648631795
30
0
10
-10.866922793914981
20
-51.405274031467215
30
0
10
-13.727605789144219
20
-53.444140786410586
30
0
10
-16.125328063817811
20
-56.635546504956764
30
0
10
-17.732446163719697
20
-60.056383699033979
30
0
10
-18.64844013118249
20
-62.637725764246099
30
0
10
-19.111983036482826
20
-64.158465372950332
30
0
10
-19.226118685551288
20
-64.547939524333614
30
0
0
SPLINE
5
123
100
AcDbEntity
8
0
100
AcDbSpline
70
4
71
5
72
25
73
19
74
0
42
0.000000001
43
0.0000000001
44
0.0000000001
40
-0.83443899742135497
40
-0.83443899742135497
40
-0.83443899742135497
40
-0.83443899742135497
40
-0.83443899742135497
40
-0.83443899742135497
40
-0.80000000000000016
40
-0.75000000000000011
40
-0.70000000000000007
40
-0.65000000000000002
40
-0.59999999999999998
40
-0.54999999999999993
40
-0.49999999999999994
40
-0.44999999999999996
40
-0.39999999999999997
40
-0.34999999999999998
40
-0.29999999999999999
40
-0.25
40
-0.20000000000000001
40
-0.15988205963471505
40
-0.15988205963471505
40
-0.15988205963471505
40
-0.15988205963471505
40
-0.15988205963471505
40
-0.15988205963471505
41
1
41
1
41
1
41
1
41
1
41
1
41
1
41
1
41
1
41
1
41
1
41
1
41
1
41
1
41
1
41
1
41
1
41
1
41
1
10
-19.226118685551604
20
-64.547939524334581
30
0
10
-19.404145711077806
20
-64.302249570617562
30
0
10
-19.864128257475553
20
-63.743667980329462
30
0
10
-20.681358232971728
20
-63.03365317515641
30
0
10
-21.948234410843106
20
-62.48978113009251
30
0
10
-23.686227892830516
20
-62.608592659717729
30
0
10
-25.510708040467449
20
-63.662559532688512
30
0
10
-27.131636162590546
20
-65.55762517538848
30
0
10
-28.391842388777579
20
-68.137734896006236
30
0
10
-29.166519336776293
20
-71.184318162200228
30
0
10
-29.38173118205146
20
-74.418062411412862
30
0
10
-29.024586078100331
20
-77.51251203517576
30
0
10
-28.132186399390076
20
-80.137431879193969
30
0
10
-26.786085901592539
20
-81.996499841112211
30
0
10
-25.172244716279092
20
-82.833093669311182
30
0
10
-23.763443772509394
20
-82.704709634268866
30
0
10
-22.720463459486222
20
-82.199321286521979
30
0
10
-22.06605630333225
20
-81.71953057712777
30
0
10
-21.779568500174207
20
-81.476914414966217
30
0
0
SPLINE
5
124
100
AcDbEntity
8
0
100
AcDbSpline
70
4
71
5
72
12
73
6
74
0
42
0.000000001
43
0.0000000001
44
0.0000000001
40
0.48603846823144459
40
0.48603846823144459
40
0.48603846823144459
40
0.48603846823144459
40
0.48603846823144459
40
0.48603846823144459
40
0.53332809268814696
40
0.53332809268814696
40
0.53332809268814696
40
0.53332809268814696
40
0.53332809268814696
40
0.53332809268814696
41
1
41
1
41
1
41
1
41
1
41
1
10
-21.779568500174172
20
-81.476914414966245
30
0
10
-21.797032398573343
20
-82.230434077234264
30
0
10
-21.801240474905406
20
-82.970599466962483
30
0
10
-21.791742282536283
20
-83.696376238189444
30
0
10
-21.767991926494382
20
-84.40690235874122
30
0
10
-21.729405669547695
20
-85.101465874349941
30
0
0
LINE
5
125
100
AcDbEntity
8
0
100
AcDbLine
10
-21.729405669547699
20
-85.101465874349955
30
0
11
-27.091412437154332
21
-88.724443420030084
31
0
0
SPLINE
5
126
100
AcDbEntity
8
0
100
AcDbSpline
70
4
71
5
72
41
73
35
74
0
42
0.000000001
43
0.0000000001
44
0.0000000001
40
-1
40
-1
40
-1
40
-1
40
-1
40
-1
40
-0.96666666666666656
40
-0.93333333333333324
40
-0.89999999999999991
40
-0.86666666666666659
40
-0.83333333333333326
40
-0.79999999999999993
40
-0.76666666666666661
40
-0.73333333333333328
40
-0.69999999999999996
40
-0.66666666666666663
40
-0.6333333333333333
40
-0.59999999999999998
40
-0.56666666666666665
40
-0.53333333333333333
40
-0.49999999999999994
40
-0.46666666666666662
40
-0.43333333333333329
40
-0.39999999999999997
40
-0.36666666666666664
40
-0.33333333333333331
40
-0.29999999999999999
40
-0.26666666666666666
40
-0.23333333333333331
40
-0.19999999999999998
40
-0.16666666666666666
40
-0.13333333333333333
40
-0.10000000000000001
40
-0.066666666666666666
40
-0.033333333333333333
40
0
40
0
40
0
40
0
40
0
40
0
41
1
41
1
41
1
41
1
41
1
41
1
41
1
41
1
41
1
41
1
41
1
41
1
41
1
41
1
41
1
41
1
41
1
41
1
41
1
41
1
41
1
41
1
41
1
41
1
41
1
41
1
41
1
41
1
41
1
41
1
41
1
41
1
41
1
41
1
41
1
10
-27.091412437154332
20
-88.724443420030084
30
0
10
-27.058610627747612
20
-89.225128059243346
30
0
10
-26.955366546198771
20
-90.21935457622925
30
0
10
-26.687579590660381
20
-91.689265262535741
30
0
10
-26.10427481793031
20
-93.606217487710211
30
0
10
-25.001199949644718
20
-95.924279586273599
30
0
10
-23.537716841487438
20
-98.145356864703501
30
0
10
-21.744306114645529
20
-100.23200967377063
30
0
10
-19.674567772074955
20
-102.1226656014973
30
0
10
-17.412818647132649
20
-103.72397854987526
30
0
10
-15.078387142733021
20
-104.90864273030769
30
0
10
-12.801383178220354
20
-105.55971334696542
30
0
10
-10.701350207218987
20
-105.61007369156484
30
0
10
-8.8644695155182873
20
-105.08548099100111
30
0
10
-7.321847255045471
20
-104.14379371984501
30
0
10
-6.0250310952011912
20
-103.12479896571108
30
0
10
-4.8739008999884685
20
-102.41575688115459
30
0
10
-3.7450580483534166
20
-102.32405278272947
30
0
10
-2.5225652566464252
20
-102.91736229002537
30
0
10
-1.1184109515656318
20
-103.97523533441631
30
0
10
0.52477793080148749
20
-105.14582206149484
30
0
10
2.4277989627261838
20
-106.04689661697395
30
0
10
4.5676243622947617
20
-106.40721009804473
30
0
10
6.8781537381724522
20
-106.12846898586244
30
0
10
9.2667585661254819
20
-105.22578681227662
30
0
10
11.626889910967222
20
-103.79597004796729
30
0
10
13.852294856195602
20
-101.97506489006942
30
0
10
15.850098377262309
20
-99.901993557340717
30
0
10
17.555586570361218
20
-97.677144030874814
30
0
10
18.927868511954749
20
-95.36678147859817
30
0
10
19.944119052394274
20
-93.010796618052041
30
0
10
20.464456883130559
20
-91.105431322265218
30
0
10
20.689221798623365
20
-89.667855891456213
30
0
10
20.765648406146656
20
-88.705676998689398
30
0
10
20.785507496480975
20
-88.223638818213814
30
0
0
LINE
5
127
100
AcDbEntity
8
0
100
AcDbLine
10
20.785507496480967
20
-88.2236388182138
30
0
11
15.846210131280305
21
-85.188648870921838
31
0
0
SPLINE
5
128
100
AcDbEntity
8
0
100
AcDbSpline
70
4
71
5
72
13
73
7
74
0
42
0.000000001
43
0.0000000001
44
0.0000000001
40
-0.53451664487216177
40
-0.53451664487216177
40
-0.53451664487216177
40
-0.53451664487216177
40
-0.53451664487216177
40
-0.53451664487216177
40
-0.53333333333333333
40
-0.48603846823144026
40
-0.48603846823144026
40
-0.48603846823144026
40
-0.48603846823144026
40
-0.48603846823144026
40
-0.48603846823144026
41
1
41
1
41
1
41
1
41
1
41
1
41
1
10
15.846210131280301
20
-85.188648870921853
30
0
10
15.847213038493122
20
-85.171309277034368
30
0
10
15.887918674890216
20
-84.460526009960759
30
0
10
15.913002353940495
20
-83.732930071605963
30
0
10
15.923093971372456
20
-82.989284376937235
30
0
10
15.918781637429692
20
-82.2305175824266
30
0
10
15.901315803677971
20
-81.476914414966018
30
0
0
SPLINE
5
129
100
AcDbEntity
8
0
100
AcDbSpline
70
4
71
5
72
25
73
19
74
0
42
0.000000001
43
0.0000000001
44
0.0000000001
40
0.15988205963470853
40
0.15988205963470853
40
0.15988205963470853
40
0.15988205963470853
40
0.15988205963470853
40
0.15988205963470853
40
0.20000000000000001
40
0.25
40
0.29999999999999999
40
0.34999999999999998
40
0.39999999999999997
40
0.44999999999999996
40
0.49999999999999994
40
0.54999999999999993
40
0.59999999999999998
40
0.65000000000000002
40
0.70000000000000007
40
0.75000000000000011
40
0.80000000000000016
40
0.83443899742134708
40
0.83443899742134708
40
0.83443899742134708
40
0.83443899742134708
40
0.83443899742134708
40
0.83443899742134708
41
1
41
1
41
1
41
1
41
1
41
1
41
1
41
1
41
1
41
1
41
1
41
1
41
1
41
1
41
1
41
1
41
1
41
1
41
1
10
15.901315803677996
20
-81.476914414966046
30
0
10
16.187803606836077
20
-81.719530577127628
30
0
10
16.842210762990089
20
-82.199321286521894
30
0
10
17.88519107601331
20
-82.704709634268852
30
0
10
19.293992019783065
20
-82.833093669311211
30
0
10
20.907833205096559
20
-81.996499841112211
30
0
10
22.253933702894095
20
-80.137431879193969
30
0
10
23.14633338160435
20
-77.51251203517576
30
0
10
23.503478485555476
20
-74.418062411412862
30
0
10
23.288266640280312
20
-71.184318162200228
30
0
10
22.513589692281599
20
-68.137734896006236
30
0
10
21.253383466094565
20
-65.55762517538848
30
0
10
19.632455343971472
20
-63.662559532688512
30
0
10
17.807975196334535
20
-62.608592659717729
30
0
10
16.069981714347193
20
-62.489781130092517
30
0
10
14.803105536475856
20
-63.033653175156353
30
0
10
13.985875560979714
20
-63.743667980329342
30
0
10
13.525893014581998
20
-64.302249570617363
30
0
10
13.34786598905583
20
-64.547939524334311
30
0
0
SPLINE
5
130
100
AcDbEntity
8
0
100
AcDbSpline
70
4
71
5
72
15
73
9
74
0
42
0.000000001
43
0.0000000001
44
0.0000000001
40
-0.2894282571127243
40
-0.2894282571127243
40
-0.2894282571127243
40
-0.2894282571127243
40
-0.2894282571127243
40
-0.2894282571127243
40
-0.26666666666666666
40
-0.20000000000000001
40
-0.13333333333333333
40
-0.11157809361836959
40
-0.11157809361836959
40
-0.11157809361836959
40
-0.11157809361836959
40
-0.11157809361836959
40
-0.11157809361836959
41
1
41
1
41
1
41
1
41
1
41
1
41
1
41
1
41
1
10
13.347865989055506
20
-64.54793952433333
30
0
10
13.23373033998708
20
-64.158465372950118
30
0
10
12.77018743468682
20
-62.637725764245999
30
0
10
11.854193467224135
20
-60.056383699034022
30
0
10
10.57108978561577
20
-57.325228597133702
30
0
10
8.9532276654611582
20
-54.965514401161897
30
0
10
7.2404027164726497
20
-53.281433557043734
30
0
10
6.1581116690916504
20
-52.456726265027214
30
0
10
5.8853179246243448
20
-52.262211251302766
30
0
0
SPLINE
5
131
100
AcDbEntity
8
0
100
AcDbSpline
70
4
71
5
72
111
73
105
74
0
42
0.000000001
43
0.0000000001
44
0.0000000001
40
0.0041329680253565744
40
0.0041329680253565744
40
0.0041329680253565744
40
0.0041329680253565744
40
0.0041329680253565744
40
0.0041329680253565744
40
0.0086956521739130436
40
0.017391304347826087
40
0.026086956521739132
40
0.034782608695652174
40
0.043478260869565216
40
0.052173913043478258
40
0.0608695652173913
40
0.069565217391304349
40
0.078260869565217397
40
0.086956521739130446
40
0.095652173913043495
40
0.10434782608695654
40
0.11304347826086959
40
0.12173913043478264
40
0.13043478260869568
40
0.13913043478260873
40
0.14782608695652177
40
0.15652173913043482
40
0.16521739130434787
40
0.17391304347826092
40
0.18260869565217397
40
0.19130434782608702
40
0.20000000000000007
40
0.20869565217391312
40
0.21739130434782616
40
0.22608695652173921
40
0.23478260869565226
40
0.24347826086956531
40
0.25217391304347836
40
0.26086956521739141
40
0.26956521739130446
40
0.27826086956521751
40
0.28695652173913055
40
0.2956521739130436
40
0.30434782608695665
40
0.3130434782608697
40
0.32173913043478275
40
0.3304347826086958
40
0.33913043478260885
40
0.3478260869565219
40
0.35652173913043494
40
0.36521739130434799
40
0.37391304347826104
40
0.38260869565217409
40
0.39130434782608714
40
0.40000000000000019
40
0.40869565217391324
40
0.41739130434782629
40
0.42608695652173934
40
0.43478260869565238
40
0.44347826086956543
40
0.45217391304347848
40
0.46086956521739153
40
0.46956521739130458
40
0.47826086956521763
40
0.48695652173913068
40
0.49565217391304373
40
0.50434782608695672
40
0.51304347826086971
40
0.52173913043478271
40
0.5304347826086957
40
0.53913043478260869
40
0.54782608695652169
40
0.55652173913043468
40
0.56521739130434767
40
0.57391304347826066
40
0.58260869565217366
40
0.59130434782608665
40
0.59999999999999964
40
0.60869565217391264
40
0.61739130434782563
40
0.62608695652173862
40
0.63478260869565162
40
0.64347826086956461
40
0.6521739130434776
40
0.6608695652173906
40
0.66956521739130359
40
0.67826086956521658
40
0.68695652173912958
40
0.69565217391304257
40
0.70434782608695556
40
0.71304347826086856
40
0.72173913043478155
40
0.73043478260869454
40
0.73913043478260754
40
0.74782608695652053
40
0.75652173913043352
40
0.76521739130434652
40
0.77391304347825951
40
0.7826086956521725
40
0.7913043478260855
40
0.79999999999999849
40
0.80869565217391148
40
0.81739130434782448
40
0.82608695652173747
40
0.83478260869565046
40
0.84347826086956346
40
0.85217391304347645
40
0.86086956521738944
40
0.86744504499805952
40
0.86744504499805952
40
0.86744504499805952
40
0.86744504499805952
40
0.86744504499805952
40
0.86744504499805952
41
1
41
1
41
1
41
1
41
1
41
1
41
1
41
1
41
1
41
1
41
1
41
1
41
1
41
1
41
1
41
1
41
1
41
1
41
1
41
1
41
1
41
1
41
1
41
1
41
1
41
1
41
1
41
1
41
1
41
1
41
1
41
1
41
1
41
1
41
1
41
1
41
1
41
1
41
1
41
1
41
1
41
1
41
1
41
1
41
1
41
1
41
1
41
1
41
1
41
1
41
1
41
1
41
1
41
1
41
1
41
1
41
1
41
1
41
1
41
1
41
1
41
1
41
1
41
1
41
1
41
1
41
1
41
1
41
1
41
1
41
1
41
1
41
1
41
1
41
1
41
1
41
1
41
1
41
1
41
1
41
1
41
1
41
1
41
1
41
1
41
1
41
1
41
1
41
1
41
1
41
1
41
1
41
1
41
1
41
1
41
1
41
1
41
1
41
1
41
1
41
1
41
1
41
1
41
1
41
1
10
5.8853179246218277
20
-52.26221125130099
30
0
10
5.8888840476079629
20
-52.035615807023099
30
0
10
5.926491389557361
20
-51.401799844741063
30
0
10
6.1185682183814825
20
-50.469749693742685
30
0
10
6.6736995499750043
20
-49.429410043769948
30
0
10
7.8298338344440674
20
-48.503211460247698
30
0
10
9.5188648625206049
20
-47.871366364806811
30
0
10
11.459511999040393
20
-47.492439721179537
30
0
10
13.498897764979315
20
-47.227079833818962
30
0
10
15.518103132978858
20
-46.954863135214204
30
0
10
17.441576404734271
20
-46.582826317286205
30
0
10
19.226692955124737
20
-46.041579522026765
30
0
10
20.858546161554678
20
-45.284670972102575
30
0
10
22.342583992715227
20
-44.286664056732391
30
0
10
23.698270299934375
20
-43.041720878552184
30
0
10
24.952098317258855
20
-41.562113008193165
30
0
10
26.13152251454855
20
-39.876376732483067
30
0
10
27.26368611332196
20
-38.024339091788086
30
0
10
28.373664762025026
20
-36.052521789139739
30
0
10
29.482870556942018
20
-34.00936284457056
30
0
10
30.607440381948038
20
-31.940608954402276
30
0
10
31.756502962349362
20
-29.884422299660997
30
0
10
32.930788724674514
20
-27.867102668597447
30
0
10
34.1203442872878
20
-25.897285900268727
30
0
10
35.306330419932479
20
-23.967030688023208
30
0
10
36.465025431685604
20
-22.056616194225004
30
0
10
37.571138521234474
20
-20.138181272391197
30
0
10
38.601416128707761
20
-18.179844468800368
30
0
10
39.538104234304356
20
-16.149602700927851
30
0
10
40.372519086719905
20
-14.019353219878671
30
0
10
41.108471570587717
20
-11.768796202707794
30
0
10
41.766044001336638
20
-9.3895770791057593
30
0
10
42.377455304817602
20
-6.8842452451112752
30
0
10
42.982557264158594
20
-4.2649689160839435
30
0
10
43.624458612571544
20
-1.5523467885230762
30
0
10
44.345122301527191
20
1.2258232085353808
30
0
10
45.180916967509219
20
4.0357370620763691
30
0
10
46.158319069776901
20
6.8388269207173549
30
0
10
47.289235744302722
20
9.5928954620824953
30
0
10
48.567209449845166
20
12.253491335970789
30
0
10
49.96140561745635
20
14.774683507812721
30
0
10
51.420274254329847
20
17.112470127384196
30
0
10
52.880992432433274
20
19.229789645940865
30
0
10
54.277094154466056
20
21.100991881448103
30
0
10
55.546946702818573
20
22.71665884419339
30
0
10
56.641635885617347
20
24.088005202816035
30
0
10
57.533644412248456
20
25.252117341545905
30
0
10
58.223939547524289
20
26.275314715825523
30
0
10
58.753176738301761
20
27.261507483614629
30
0
10
59.174204944852427
20
28.312193750035885
30
0
10
59.512549131729308
20
29.470435712767788
30
0
10
59.740374357737771
20
30.683840853289208
30
0
10
59.721875617122606
20
31.726409551424766
30
0
10
59.318929966202859
20
32.353091782032266
30
0
10
58.512133290622963
20
32.478371369830093
30
0
10
57.569439902581095
20
32.420175086003852
30
0
10
56.867694741075155
20
32.661015471733933
30
0
10
56.597182868711222
20
33.445644002129633
30
0
10
56.505169121645594
20
34.4341203385776
30
0
10
56.182997064464153
20
35.100532603017463
30
0
10
55.401205122318615
20
35.20376923805123
30
0
10
54.339423980211507
20
35.096876696129662
30
0
10
53.314325624391898
20
35.268187603430533
30
0
10
52.564419083010428
20
35.96517174706441
30
0
10
52.028958058592821
20
36.821426316709719
30
0
10
51.518421621690393
20
37.304384685368255
30
0
10
50.866832814696259
20
37.134128882992059
30
0
10
50.08557634825506
20
36.687533450130566
30
0
10
49.27014976588562
20
36.546048985438119
30
0
10
48.494279128014711
20
36.954841608398191
30
0
10
47.757991747220885
20
37.606218143274887
30
0
10
47.03649842183907
20
38.008466216710872
30
0
10
46.312394940873595
20
37.768790521950429
30
0
10
45.596984070729405
20
36.775242376666412
30
0
10
44.913976887029996
20
35.094054498482869
30
0
10
44.292224972769333
20
32.936336356907844
30
0
10
43.755491803846773
20
30.596977841087366
30
0
10
43.311719317614632
20
28.404750662944437
30
0
10
42.950663012393385
20
26.671394034649346
30
0
10
42.647815512760729
20
25.646859749956906
30
0
10
42.366269522836149
20
25.470467805877313
30
0
10
42.059718074718766
20
26.128006926672004
30
0
10
41.674176046351121
20
27.394796324731395
30
0
10
41.159960395442369
20
28.915628932287738
30
0
10
40.486065592314723
20
30.310411536585239
30
0
10
39.651901337561384
20
31.260130456608355
30
0
10
38.704480041235989
20
31.626431756842322
30
0
10
37.735754491449043
20
31.45600433593458
30
0
10
36.860879569139883
20
30.884819891118518
30
0
10
36.202786944496694
20
30.061521307407247
30
0
10
35.870898692590544
20
29.089113299642438
30
0
10
35.931601949268597
20
28.037401226853934
30
0
10
36.381158185570854
20
26.939961585540509
30
0
10
37.115207961493951
20
25.796961528272476
30
0
10
37.964714480107432
20
24.585733433144505
30
0
10
38.735666838560292
20
23.273201480188401
30
0
10
39.246331176710896
20
21.827210127167724
30
0
10
39.36802013934971
20
20.229106764006822
30
0
10
39.057056663880275
20
18.483469816450338
30
0
10
38.333914896944819
20
16.611113735428319
30
0
10
37.320255299999197
20
14.739882174594408
30
0
10
36.349928699347778
20
13.221452757427087
30
0
10
35.587540929651318
20
12.098274830210991
30
0
10
35.0918774245687
20
11.381827145258612
30
0
10
34.87742785684987
20
11.073393417243549
30
0
0
ARC
5
132
100
AcDbEntity
8
0
100
AcDbCircle
10
4.3538100766507897e-15
20
14
30
0
40
35.000000000000007
210
-0
220
0
230
1
100
AcDbArc
50
-4.7965207015252638
51
28.28750339853389
0
SPLINE
5
133
100
AcDbEntity
8
0
100
AcDbSpline
70
4
71
5
72
67
73
61
74
0
42
0.000000001
43
0.0000000001
44
0.0000000001
40
0.053927200752663364
40
0.053927200752663364
40
0.053927200752663364
40
0.053927200752663364
40
0.053927200752663364
40
0.053927200752663364
40
0.055555555555555559
40
0.066666666666666666
40
0.077777777777777779
40
0.088888888888888892
40
0.10000000000000001
40
0.11111111111111112
40
0.12222222222222223
40
0.13333333333333333
40
0.14444444444444443
40
0.15555555555555553
40
0.16666666666666663
40
0.17777777777777773
40
0.18888888888888883
40
0.19999999999999993
40
0.21111111111111103
40
0.22222222222222213
40
0.23333333333333323
40
0.24444444444444433
40
0.25555555555555542
40
0.26666666666666655
40
0.27777777777777768
40
0.28888888888888881
40
0.29999999999999993
40
0.31111111111111106
40
0.32222222222222219
40
0.33333333333333331
40
0.34444444444444444
40
0.35555555555555557
40
0.3666666666666667
40
0.37777777777777782
40
0.38888888888888895
40
0.40000000000000008
40
0.4111111111111112
40
0.42222222222222233
40
0.43333333333333346
40
0.44444444444444459
40
0.45555555555555571
40
0.46666666666666684
40
0.47777777777777797
40
0.48888888888888909
40
0.50000000000000022
40
0.51111111111111129
40
0.52222222222222237
40
0.53333333333333344
40
0.54444444444444451
40
0.55555555555555558
40
0.56666666666666665
40
0.57777777777777772
40
0.5888888888888888
40
0.59999999999999987
40
0.61111111111111094
40
0.62222222222222201
40
0.63333333333333308
40
0.64444444444444415
40
0.65555555555555522
40
0.6607827228559392
40
0.6607827228559392
40
0.6607827228559392
40
0.6607827228559392
40
0.6607827228559392
40
0.6607827228559392
41
1
41
1
41
1
41
1
41
1
41
1
41
1
41
1
41
1
41
1
41
1
41
1
41
1
41
1
41
1
41
1
41
1
41
1
41
1
41
1
41
1
41
1
41
1
41
1
41
1
41
1
41
1
41
1
41
1
41
1
41
1
41
1
41
1
41
1
41
1
41
1
41
1
41
1
41
1
41
1
41
1
41
1
41
1
41
1
41
1
41
1
41
1
41
1
41
1
41
1
41
1
41
1
41
1
41
1
41
1
41
1
41
1
41
1
41
1
41
1
41
1
10
30.820325705662729
20
30.586365587339053
30
0
10
30.840926623381986
20
30.74853045495739
30
0
10
30.997479051822665
20
32.020417099812974
30
0
10
31.222909954811982
20
34.446285214433296
30
0
10
31.367823294191254
20
38.08180275190702
30
0
10
31.208464561999531
20
42.872977811153881
30
0
10
30.527225851672668
20
48.361973112523451
30
0
10
29.436518545867042
20
53.341218345894184
30
0
10
28.052310518983607
20
57.692965618726248
30
0
10
26.518612613363214
20
61.406976697181364
30
0
10
24.985606118791903
20
64.549937701182174
30
0
10
23.591177784517612
20
67.2440507081471
30
0
10
22.441535343060313
20
69.642084977853045
30
0
10
21.591097404617805
20
71.903632709108322
30
0
10
21.025233908697039
20
74.171672420337913
30
0
10
20.634950916356466
20
76.546838042032249
30
0
10
20.256836260260457
20
79.083285558333287
30
0
10
19.72350776709008
20
81.789084339262502
30
0
10
18.912889910231282
20
84.623991245491737
30
0
10
17.792352045634004
20
87.500545518946666
30
0
10
16.479665885353221
20
90.277895311548249
30
0
10
15.200758607027964
20
92.796501609552536
30
0
10
14.216405440168261
20
94.924076754913187
30
0
10
13.757741752152064
20
96.600021378679187
30
0
10
13.96169241495652
20
97.875501230170102
30
0
10
14.796727242991709
20
98.968995929097176
30
0
10
16.121563206407892
20
100.12927736000472
30
0
10
17.76060711528331
20
101.4710669135462
30
0
10
19.570779304464196
20
102.83210505695608
30
0
10
21.449617018456543
20
103.92421524860653
30
0
10
23.344293535492966
20
104.47172930283438
30
0
10
25.261625194502088
20
104.35802816886344
30
0
10
27.274466661312935
20
103.75936884353433
30
0
10
29.453899235625791
20
103.01213534664498
30
0
10
31.79908314179535
20
102.48505202759259
30
0
10
34.177852789926632
20
102.45788562334647
30
0
10
36.237565744364694
20
102.97616857480679
30
0
10
37.559704709493566
20
103.92455811900564
30
0
10
37.826199212455876
20
105.12401784269046
30
0
10
37.033248532093815
20
106.44106893818514
30
0
10
35.489508597136371
20
107.81398816442592
30
0
10
33.600017650051974
20
109.19235434762427
30
0
10
31.697188082838398
20
110.49598552727629
30
0
10
29.884497396092694
20
111.57846355366983
30
0
10
28.133442223227139
20
112.29556724640055
30
0
10
26.346007197778555
20
112.55628448438844
30
0
10
24.437097919356333
20
112.39008588101805
30
0
10
22.38865014687919
20
111.9787100763765
30
0
10
20.217985896606713
20
111.55943357027553
30
0
10
17.960029884350234
20
111.35160542620726
30
0
10
15.64170624852186
20
111.46655132382557
30
0
10
13.266796330857355
20
111.84664421608231
30
0
10
10.838955064159997
20
112.33032587227805
30
0
10
8.3820179644843567
20
112.70290832525052
30
0
10
5.9572806107153546
20
112.74913464569133
30
0
10
3.6920542195087931
20
112.31392762825126
30
0
10
1.965920768481223
20
111.42782053657221
30
0
10
0.92324285106245185
20
110.39966503058281
30
0
10
0.3565100508645172
20
109.50789615605098
30
0
10
0.081605200073589901
20
108.92511383834835
30
0
10
1.6630880700363448e-12
20
108.73351093930498
30
0
0
SPLINE
5
134
100
AcDbEntity
8
0
100
AcDbSpline
70
4
71
5
72
17
73
11
74
0
42
0.000000001
43
0.0000000001
44
0.0000000001
40
0.66078272285596007
40
0.66078272285596007
40
0.66078272285596007
40
0.66078272285596007
40
0.66078272285596007
40
0.66078272285596007
40
0.6666666666666663
40
0.67777777777777737
40
0.68888888888888844
40
0.69999999999999951
40
0.71111111111111058
40
0.71809549241655868
40
0.71809549241655868
40
0.71809549241655868
40
0.71809549241655868
40
0.71809549241655868
40
0.71809549241655868
41
1
41
1
41
1
41
1
41
1
41
1
41
1
41
1
41
1
41
1
41
1
10
3.3801086929408086e-14
20
108.73351093930114
30
0
10
0.091858627109364877
20
108.5178337613663
30
0
10
0.33395539100138882
20
107.87602430681241
30
0
10
0.62423999946950048
20
106.7279077551254
30
0
10
0.78850243784213803
20
104.95082030663484
30
0
10
0.67102730110002662
20
102.44896988401577
30
0
10
0.36661425507821588
20
99.772465785841064
30
0
10
0.14197434118094682
20
97.677195198463977
30
0
10
0.0405012094719761
20
96.190945182258204
30
0
10
0.0078603839128095696
20
95.285671824198616
30
0
10
-2.8589056035727145e-13
20
94.9386889020995
30
0
0
SPLINE
5
135
100
AcDbEntity
8
0
100
AcDbSpline
70
4
71
5
72
13
73
7
74
0
42
0.000000001
43
0.0000000001
44
0.0000000001
40
0.71809549241656034
40
0.71809549241656034
40
0.71809549241656034
40
0.71809549241656034
40
0.71809549241656034
40
0.71809549241656034
40
0.72222222222222165
40
0.72372353229777353
40
0.72372353229777353
40
0.72372353229777353
40
0.72372353229777353
40
0.72372353229777353
40
0.72372353229777353
41
1
41
1
41
1
41
1
41
1
41
1
41
1
10
3.5431347526065915e-13
20
94.938688902099074
30
0
10
0.0046443169640901722
20
94.733673639606877
30
0
10
0.0087223807578869581
20
94.455229838900124
30
0
10
0.0096338274660930263
20
94.178405406611304
30
0
10
0.0073025869373113238
20
93.903231279160281
30
0
10
0.0017202864908132829
20
93.629700531860067
30
0
10
2.3913163116340286e-14
20
93.556851355284394
30
0
0
SPLINE
5
136
100
AcDbEntity
8
0
100
AcDbSpline
70
4
71
5
72
27
73
21
74
0
42
0.000000001
43
0.0000000001
44
0.0000000001
40
0.72372353229777353
40
0.72372353229777353
40
0.72372353229777353
40
0.72372353229777353
40
0.72372353229777353
40
0.72372353229777353
40
0.73333333333333273
40
0.7444444444444438
40
0.75555555555555487
40
0.76666666666666594
40
0.77777777777777701
40
0.78888888888888808
40
0.79999999999999916
40
0.81111111111111023
40
0.8222222222222213
40
0.83333333333333237
40
0.84444444444444344
40
0.85555555555555451
40
0.86666666666666559
40
0.87777777777777666
40
0.88888888888888773
40
0.89664065615185784
40
0.89664065615185784
40
0.89664065615185784
40
0.89664065615185784
40
0.89664065615185784
40
0.89664065615185784
41
1
41
1
41
1
41
1
41
1
41
1
41
1
41
1
41
1
41
1
41
1
41
1
41
1
41
1
41
1
41
1
41
1
41
1
41
1
41
1
41
1
10
3.4287080553224714e-14
20
93.556851355284394
30
0
10
0.011011456706983246
20
93.090547888800586
30
0
10
0.055178069832013885
20
92.095395429378385
30
0
10
0.19037482319377025
20
90.600163568714834
30
0
10
0.49373982631309743
20
88.640328563701289
30
0
10
0.97635759648003706
20
86.208604357930042
30
0
10
1.4364861073315973
20
83.666549005519769
30
0
10
1.7348508598834267
20
81.01643532762364
30
0
10
1.8128442690489823
20
78.238912073988786
30
0
10
1.7008374494493075
20
75.37165257160153
30
0
10
1.4778221650632402
20
72.477540083261772
30
0
10
1.2444827497066178
20
69.622205610077344
30
0
10
1.0904122078206684
20
66.847284300602155
30
0
10
1.0650114460242839
20
64.14676470115991
30
0
10
1.1435994232166129
20
61.438534784331374
30
0
10
1.244728054179183
20
58.591494266147265
30
0
10
1.2518032876978504
20
55.647571676747688
30
0
10
1.1039605201378122
20
53.042906102623064
30
0
10
0.87391561440926768
20
50.960854922936313
30
0
10
0.67246628853273394
20
49.576540850362633
30
0
10
0.57961765786507757
20
48.99520029047828
30
0
0
SPLINE
5
137
100
AcDbEntity
8
0
100
AcDbSpline
70
4
71
5
72
13
73
7
74
0
42
0.000000001
43
0.0000000001
44
0.0000000001
40
0.89664065615185784
40
0.89664065615185784
40
0.89664065615185784
40
0.89664065615185784
40
0.89664065615185784
40
0.89664065615185784
40
0.8999999999999988
40
0.90450995605670759
40
0.90450995605670759
40
0.90450995605670759
40
0.90450995605670759
40
0.90450995605670759
40
0.90450995605670759
41
1
41
1
41
1
41
1
41
1
41
1
41
1
10
0.57961765786507757
20
48.99520029047828
30
0
10
0.53938032027991967
20
48.743267696623029
30
0
10
0.44069714595669673
20
48.147634858956835
30
0
10
0.33142537980983766
20
47.539194868968906
30
0
10
0.21109113162005844
20
46.918096826207005
30
0
10
0.079326829215876332
20
46.284726336017492
30
0
10
5.5944832100252029e-15
20
45.917803448548824
30
0
0
SPLINE
5
138
100
AcDbEntity
8
0
100
AcDbSpline
70
4
71
5
72
13
73
7
74
0
42
0.000000001
43
0.0000000001
44
0.0000000001
40
-0.90450995605670759
40
-0.90450995605670759
40
-0.90450995605670759
40
-0.90450995605670759
40
-0.90450995605670759
40
-0.90450995605670759
40
-0.8999999999999988
40
-0.89664065615185784
40
-0.89664065615185784
40
-0.89664065615185784
40
-0.89664065615185784
40
-0.89664065615185784
40
-0.89664065615185784
41
1
41
1
41
1
41
1
41
1
41
1
41
1
10
2.3037127760971998e-14
20
45.917803448548824
30
0
10
-0.079326829215847577
20
46.284726336017492
30
0
10
-0.21109113162002929
20
46.918096826207005
30
0
10
-0.33142537980980813
20
47.539194868968906
30
0
10
-0.44069714595666687
20
48.147634858956835
30
0
10
-0.53938032027988936
20
48.743267696623029
30
0
10
-0.57961765786504693
20
48.99520029047828
30
0
0
SPLINE
5
139
100
AcDbEntity
8
0
100
AcDbSpline
70
4
71
5
72
27
73
21
74
0
42
0.000000001
43
0.0000000001
44
0.0000000001
40
-0.89664065615185784
40
-0.89664065615185784
40
-0.89664065615185784
40
-0.89664065615185784
40
-0.89664065615185784
40
-0.89664065615185784
40
-0.88888888888888773
40
-0.87777777777777666
40
-0.86666666666666559
40
-0.85555555555555451
40
-0.84444444444444344
40
-0.83333333333333237
40
-0.8222222222222213
40
-0.81111111111111023
40
-0.79999999999999916
40
-0.78888888888888808
40
-0.77777777777777701
40
-0.76666666666666594
40
-0.75555555555555487
40
-0.7444444444444438
40
-0.73333333333333273
40
-0.72372353229777353
40
-0.72372353229777353
40
-0.72372353229777353
40
-0.72372353229777353
40
-0.72372353229777353
40
-0.72372353229777353
41
1
41
1
41
1
41
1
41
1
41
1
41
1
41
1
41
1
41
1
41
1
41
1
41
1
41
1
41
1
41
1
41
1
41
1
41
1
41
1
41
1
10
-0.57961765786504693
20
48.99520029047828
30
0
10
-0.67246628853270318
20
49.576540850362633
30
0
10
-0.87391561440923593
20
50.960854922936313
30
0
10
-1.1039605201377791
20
53.042906102623064
30
0
10
-1.251803287697816
20
55.647571676747688
30
0
10
-1.2447280541791463
20
58.591494266147265
30
0
10
-1.1435994232165749
20
61.438534784331374
30
0
10
-1.0650114460242441
20
64.14676470115991
30
0
10
-1.0904122078206266
20
66.847284300602155
30
0
10
-1.2444827497065745
20
69.622205610077344
30
0
10
-1.4778221650631951
20
72.477540083261772
30
0
10
-1.7008374494492606
20
75.37165257160153
30
0
10
-1.8128442690489339
20
78.238912073988786
30
0
10
-1.7348508598833763
20
81.01643532762364
30
0
10
-1.4364861073315454
20
83.666549005519769
30
0
10
-0.97635759647998355
20
86.208604357930042
30
0
10
-0.49373982631304225
20
88.640328563701289
30
0
10
-0.1903748231937139
20
90.600163568714834
30
0
10
-0.055178069831956576
20
92.095395429378385
30
0
10
-0.011011456706925332
20
93.090547888800586
30
0
10
2.3913163116340286e-14
20
93.556851355284394
30
0
0
SPLINE
5
140
100
AcDbEntity
8
0
100
AcDbSpline
70
4
71
5
72
13
73
7
74
0
42
0.000000001
43
0.0000000001
44
0.0000000001
40
-0.72372353229777342
40
-0.72372353229777342
40
-0.72372353229777342
40
-0.72372353229777342
40
-0.72372353229777342
40
-0.72372353229777342
40
-0.72222222222222165
40
-0.71809549241656034
40
-0.71809549241656034
40
-0.71809549241656034
40
-0.71809549241656034
40
-0.71809549241656034
40
-0.71809549241656034
41
1
41
1
41
1
41
1
41
1
41
1
41
1
10
3.3645774968199538e-14
20
93.556851355284394
30
0
10
-0.0017202864907554863
20
93.629700531860067
30
0
10
-0.0073025869372530553
20
93.903231279160266
30
0
10
-0.0096338274660344135
20
94.17840540661129
30
0
10
-0.0087223807578281302
20
94.455229838900124
30
0
10
-0.0046443169640312514
20
94.733673639606877
30
0
10
-2.9526294603732239e-13
20
94.938688902099074
30
0
0
SPLINE
5
141
100
AcDbEntity
8
0
100
AcDbSpline
70
4
71
5
72
17
73
11
74
0
42
0.000000001
43
0.0000000001
44
0.0000000001
40
-0.71809549241655868
40
-0.71809549241655868
40
-0.71809549241655868
40
-0.71809549241655868
40
-0.71809549241655868
40
-0.71809549241655868
40
-0.71111111111111058
40
-0.69999999999999951
40
-0.68888888888888844
40
-0.67777777777777737
40
-0.6666666666666663
40
-0.66078272285596007
40
-0.66078272285596007
40
-0.66078272285596007
40
-0.66078272285596007
40
-0.66078272285596007
40
-0.66078272285596007
41
1
41
1
41
1
41
1
41
1
41
1
41
1
41
1
41
1
41
1
41
1
10
3.4494542638929815e-13
20
94.9386889020995
30
0
10
-0.0078603839127503097
20
95.285671824198616
30
0
10
-0.040501209471916287
20
96.190945182258204
30
0
10
-0.14197434118088606
20
97.677195198463977
30
0
10
-0.36661425507815382
20
99.772465785841064
30
0
10
-0.67102730109996289
20
102.44896988401577
30
0
10
-0.78850243784207286
20
104.95082030663484
30
0
10
-0.62423999946943409
20
106.7279077551254
30
0
10
-0.33395539100132166
20
107.87602430681241
30
0
10
-0.091858627109297417
20
108.5178337613663
30
0
10
3.3775066077268434e-14
20
108.73351093930114
30
0
0
SPLINE
5
142
100
AcDbEntity
8
0
100
AcDbSpline
70
4
71
5
72
67
73
61
74
0
42
0.000000001
43
0.0000000001
44
0.0000000001
40
-0.6607827228559392
40
-0.6607827228559392
40
-0.6607827228559392
40
-0.6607827228559392
40
-0.6607827228559392
40
-0.6607827228559392
40
-0.65555555555555522
40
-0.64444444444444415
40
-0.63333333333333308
40
-0.62222222222222201
40
-0.61111111111111094
40
-0.59999999999999987
40
-0.5888888888888888
40
-0.57777777777777772
40
-0.56666666666666665
40
-0.55555555555555558
40
-0.54444444444444451
40
-0.53333333333333344
40
-0.52222222222222237
40
-0.51111111111111129
40
-0.50000000000000022
40
-0.48888888888888909
40
-0.47777777777777797
40
-0.46666666666666684
40
-0.45555555555555571
40
-0.44444444444444459
40
-0.43333333333333346
40
-0.42222222222222233
40
-0.4111111111111112
40
-0.40000000000000008
40
-0.38888888888888895
40
-0.37777777777777782
40
-0.3666666666666667
40
-0.35555555555555557
40
-0.34444444444444444
40
-0.33333333333333331
40
-0.32222222222222219
40
-0.31111111111111106
40
-0.29999999999999993
40
-0.28888888888888881
40
-0.27777777777777768
40
-0.26666666666666655
40
-0.25555555555555542
40
-0.24444444444444433
40
-0.23333333333333323
40
-0.22222222222222213
40
-0.21111111111111103
40
-0.19999999999999993
40
-0.18888888888888883
40
-0.17777777777777773
40
-0.16666666666666663
40
-0.15555555555555553
40
-0.14444444444444443
40
-0.13333333333333333
40
-0.12222222222222223
40
-0.11111111111111112
40
-0.10000000000000001
40
-0.088888888888888892
40
-0.077777777777777779
40
-0.066666666666666666
40
-0.055555555555555559
40
-0.053927200752663371
40
-0.053927200752663371
40
-0.053927200752663371
40
-0.053927200752663371
40
-0.053927200752663371
40
-0.053927200752663371
41
1
41
1
41
1
41
1
41
1
41
1
41
1
41
1
41
1
41
1
41
1
41
1
41
1
41
1
41
1
41
1
41
1
41
1
41
1
41
1
41
1
41
1
41
1
41
1
41
1
41
1
41
1
41
1
41
1
41
1
41
1
41
1
41
1
41
1
41
1
41
1
41
1
41
1
41
1
41
1
41
1
41
1
41
1
41
1
41
1
41
1
41
1
41
1
41
1
41
1
41
1
41
1
41
1
41
1
41
1
41
1
41
1
41
1
41
1
41
1
41
1
10
-1.5954425280906293e-12
20
108.73351093930498
30
0
10
-0.081605200073522136
20
108.92511383834835
30
0
10
-0.35651005086444909
20
109.50789615605098
30
0
10
-0.92324285106238302
20
110.39966503058281
30
0
10
-1.9659207684811535
20
111.42782053657221
30
0
10
-3.6920542195087229
20
112.31392762825126
30
0
10
-5.9572806107152845
20
112.74913464569133
30
0
10
-8.3820179644842856
20
112.70290832525052
30
0
10
-10.838955064159927
20
112.33032587227805
30
0
10
-13.266796330857286
20
111.84664421608231
30
0
10
-15.641706248521793
20
111.4665513238256
30
0
10
-17.960029884350163
20
111.35160542620727
30
0
10
-20.217985896606642
20
111.55943357027554
30
0
10
-22.388650146879119
20
111.97871007637652
30
0
10
-24.437097919356262
20
112.39008588101808
30
0
10
-26.346007197778484
20
112.55628448438847
30
0
10
-28.133442223227068
20
112.29556724640057
30
0
10
-29.884497396092623
20
111.57846355366985
30
0
10
-31.697188082838331
20
110.4959855272763
30
0
10
-33.60001765005191
20
109.19235434762429
30
0
10
-35.489508597136307
20
107.81398816442595
30
0
10
-37.033248532093751
20
106.44106893818515
30
0
10
-37.826199212455812
20
105.12401784269048
30
0
10
-37.559704709493495
20
103.92455811900567
30
0
10
-36.237565744364638
20
102.97616857480682
30
0
10
-34.177852789926568
20
102.4578856233465
30
0
10
-31.799083141795286
20
102.4850520275926
30
0
10
-29.453899235625727
20
103.012135346645
30
0
10
-27.274466661312871
20
103.75936884353435
30
0
10
-25.261625194502024
20
104.35802816886346
30
0
10
-23.344293535492898
20
104.4717293028344
30
0
10
-21.449617018456479
20
103.92421524860654
30
0
10
-19.570779304464132
20
102.8321050569561
30
0
10
-17.760607115283246
20
101.47106691354621
30
0
10
-16.121563206407828
20
100.12927736000475
30
0
10
-14.796727242991647
20
98.96899592909719
30
0
10
-13.96169241495646
20
97.875501230170102
30
0
10
-13.757741752152004
20
96.600021378679187
30
0
10
-14.216405440168201
20
94.924076754913187
30
0
10
-15.200758607027907
20
92.79650160955255
30
0
10
-16.479665885353164
20
90.277895311548264
30
0
10
-17.792352045633947
20
87.500545518946694
30
0
10
-18.912889910231229
20
84.623991245491766
30
0
10
-19.72350776709003
20
81.789084339262516
30
0
10
-20.256836260260407
20
79.083285558333301
30
0
10
-20.634950916356416
20
76.546838042032249
30
0
10
-21.025233908696993
20
74.171672420337927
30
0
10
-21.591097404617763
20
71.903632709108336
30
0
10
-22.441535343060266
20
69.64208497785306
30
0
10
-23.591177784517573
20
67.244050708147114
30
0
10
-24.985606118791864
20
64.549937701182188
30
0
10
-26.518612613363175
20
61.406976697181378
30
0
10
-28.052310518983571
20
57.692965618726262
30
0
10
-29.43651854586701
20
53.341218345894205
30
0
10
-30.527225851672636
20
48.361973112523472
30
0
10
-31.208464561999506
20
42.872977811153902
30
0
10
-31.367823294191233
20
38.081802751907041
30
0
10
-31.222909954811968
20
34.446285214433317
30
0
10
-30.997479051822644
20
32.020417099812988
30
0
10
-30.840926623381964
20
30.748530454957404
30
0
10
-30.820325705662704
20
30.586365587339081
30
0
0
ARC
5
143
100
AcDbEntity
8
0
100
AcDbCircle
10
4.3538100766507897e-15
20
14
30
0
40
34.999999999999993
210
0
220
0
230
1
100
AcDbArc
50
151.71249660146606
51
184.79652070152446
0
SPLINE
5
144
100
AcDbEntity
8
0
100
AcDbSpline
70
4
71
5
72
110
73
104
74
0
42
0.000000001
43
0.0000000001
44
0.0000000001
40
-0.86744504499805886
40
-0.86744504499805886
40
-0.86744504499805886
40
-0.86744504499805886
40
-0.86744504499805886
40
-0.86744504499805886
40
-0.86086956521738944
40
-0.85217391304347645
40
-0.84347826086956346
40
-0.83478260869565046
40
-0.82608695652173747
40
-0.81739130434782448
40
-0.80869565217391148
40
-0.79999999999999849
40
-0.7913043478260855
40
-0.7826086956521725
40
-0.77391304347825951
40
-0.76521739130434652
40
-0.75652173913043352
40
-0.74782608695652053
40
-0.73913043478260754
40
-0.73043478260869454
40
-0.72173913043478155
40
-0.71304347826086856
40
-0.70434782608695556
40
-0.69565217391304257
40
-0.68695652173912958
40
-0.67826086956521658
40
-0.66956521739130359
40
-0.6608695652173906
40
-0.6521739130434776
40
-0.64347826086956461
40
-0.63478260869565162
40
-0.62608695652173862
40
-0.61739130434782563
40
-0.60869565217391264
40
-0.59999999999999964
40
-0.59130434782608665
40
-0.58260869565217366
40
-0.57391304347826066
40
-0.56521739130434767
40
-0.55652173913043468
40
-0.54782608695652169
40
-0.53913043478260869
40
-0.5304347826086957
40
-0.52173913043478271
40
-0.51304347826086971
40
-0.50434782608695672
40
-0.49565217391304373
40
-0.48695652173913068
40
-0.47826086956521763
40
-0.46956521739130458
40
-0.46086956521739153
40
-0.45217391304347848
40
-0.44347826086956543
40
-0.43478260869565238
40
-0.42608695652173934
40
-0.41739130434782629
40
-0.40869565217391324
40
-0.40000000000000019
40
-0.39130434782608714
40
-0.38260869565217409
40
-0.37391304347826104
40
-0.36521739130434799
40
-0.35652173913043494
40
-0.3478260869565219
40
-0.33913043478260885
40
-0.3304347826086958
40
-0.32173913043478275
40
-0.3130434782608697
40
-0.30434782608695665
40
-0.2956521739130436
40
-0.28695652173913055
40
-0.27826086956521751
40
-0.26956521739130446
40
-0.26086956521739141
40
-0.25217391304347836
40
-0.24347826086956531
40
-0.23478260869565226
40
-0.22608695652173921
40
-0.21739130434782616
40
-0.20869565217391312
40
-0.20000000000000007
40
-0.19130434782608702
40
-0.18260869565217397
40
-0.17391304347826092
40
-0.16521739130434787
40
-0.15652173913043482
40
-0.14782608695652177
40
-0.13913043478260873
40
-0.13043478260869568
40
-0.12173913043478264
40
-0.11304347826086959
40
-0.10434782608695654
40
-0.095652173913043495
40
-0.086956521739130446
40
-0.078260869565217397
40
-0.069565217391304349
40
-0.0608695652173913
40
-0.052173913043478258
40
-0.043478260869565216
40
-0.034782608695652174
40
-0.026086956521739132
40
-0.017391304347826087
40
-0.015085870975884989
40
-0.015085870975884989
40
-0.015085870975884989
40
-0.015085870975884989
40
-0.015085870975884989
40
-0.015085870975884989
41
1
41
1
41
1
41
1
41
1
41
1
41
1
41
1
41
1
41
1
41
1
41
1
41
1
41
1
41
1
41
1
41
1
41
1
41
1
41
1
41
1
41
1
41
1
41
1
41
1
41
1
41
1
41
1
41
1
41
1
41
1
41
1
41
1
41
1
41
1
41
1
41
1
41
1
41
1
41
1
41
1
41
1
41
1
41
1
41
1
41
1
41
1
41
1
41
1
41
1
41
1
41
1
41
1
41
1
41
1
41
1
41
1
41
1
41
1
41
1
41
1
41
1
41
1
41
1
41
1
41
1
41
1
41
1
41
1
41
1
41
1
41
1
41
1
41
1
41
1
41
1
41
1
41
1
41
1
41
1
41
1
41
1
41
1
41
1
41
1
41
1
41
1
41
1
41
1
41
1
41
1
41
1
41
1
41
1
41
1
41
1
41
1
41
1
41
1
41
1
41
1
41
1
41
1
41
1
10
-34.877427856849891
20
11.073393417243974
30
0
10
-35.091877424568679
20
11.381827145259036
30
0
10
-35.587540929651212
20
12.098274830211462
30
0
10
-36.349928699347551
20
13.221452757427643
30
0
10
-37.320255299998827
20
14.739882174595053
30
0
10
-38.333914896944428
20
16.611113735428994
30
0
10
-39.057056663879969
20
18.483469816450945
30
0
10
-39.368020139349568
20
20.229106764007216
30
0
10
-39.246331176710896
20
21.827210127167792
30
0
10
-38.735666838560327
20
23.27320148018817
30
0
10
-37.964714480107496
20
24.585733433144124
30
0
10
-37.115207961493965
20
25.796961528272121
30
0
10
-36.381158185570804
20
26.939961585540328
30
0
10
-35.931601949268568
20
28.03740122685398
30
0
10
-35.870898692590572
20
29.089113299642637
30
0
10
-36.202786944496729
20
30.061521307407439
30
0
10
-36.860879569139883
20
30.884819891118561
30
0
10
-37.735754491448986
20
31.456004335934537
30
0
10
-38.704480041235897
20
31.626431756842287
30
0
10
-39.651901337561299
20
31.260130456608366
30
0
10
-40.486065592314766
20
30.310411536585292
30
0
10
-41.159960395442504
20
28.915628932287831
30
0
10
-41.67417604635132
20
27.394796324731491
30
0
10
-42.059718074718937
20
26.128006926672072
30
0
10
-42.366269522836113
20
25.47046780587733
30
0
10
-42.647815512760474
20
25.646859749956924
30
0
10
-42.950663012393029
20
26.671394034649399
30
0
10
-43.311719317614397
20
28.404750662944522
30
0
10
-43.755491803846724
20
30.596977841087444
30
0
10
-44.292224972769361
20
32.936336356907852
30
0
10
-44.913976887030024
20
35.094054498482798
30
0
10
-45.596984070729363
20
36.775242376666284
30
0
10
-46.312394940873517
20
37.768790521950322
30
0
10
-47.036498421839013
20
38.008466216710879
30
0
10
-47.757991747220913
20
37.606218143274972
30
0
10
-48.494279128014782
20
36.954841608398269
30
0
10
-49.270149765885606
20
36.546048985438134
30
0
10
-50.085576348255003
20
36.687533450130594
30
0
10
-50.866832814696238
20
37.134128882992101
30
0
10
-51.518421621690401
20
37.304384685368312
30
0
10
-52.02895805859275
20
36.821426316709719
30
0
10
-52.564419083010321
20
35.965171747064403
30
0
10
-53.314325624391884
20
35.268187603430576
30
0
10
-54.339423980211606
20
35.096876696129733
30
0
10
-55.401205122318657
20
35.203769238051287
30
0
10
-56.182997064464111
20
35.100532603017498
30
0
10
-56.505169121645608
20
34.434120338577614
30
0
10
-56.597182868711322
20
33.445644002129704
30
0
10
-56.867694741075184
20
32.661015471733961
30
0
10
-57.569439902580967
20
32.420175086003852
30
0
10
-58.512133290622728
20
32.4783713698301
30
0
10
-59.318929966202887
20
32.353091782032294
30
0
10
-59.721875617123047
20
31.726409551424844
30
0
10
-59.74037435773829
20
30.683840853289261
30
0
10
-59.512549131729216
20
29.470435712767813
30
0
10
-59.174204944851382
20
28.312193750035913
30
0
10
-58.753176738299885
20
27.261507483614697
30
0
10
-58.223939547522463
20
26.275314715825608
30
0
10
-57.533644412248428
20
25.25211734154594
30
0
10
-56.641635885620786
20
24.088005202815971
30
0
10
-55.546946702826361
20
22.716658844193169
30
0
10
-54.277094154477766
20
21.100991881447616
30
0
10
-52.880992432447314
20
19.22978964594013
30
0
10
-51.420274254343624
20
17.112470127383276
30
0
10
-49.961405617466987
20
14.774683507811853
30
0
10
-48.567209449850026
20
12.253491335970342
30
0
10
-47.289235744299972
20
9.5928954620827778
30
0
10
-46.158319069765923
20
6.8388269207185406
30
0
10
-45.180916967490752
20
4.0357370620784563
30
0
10
-44.345122301503331
20
1.2258232085382061
30
0
10
-43.624458612545219
20
-1.5523467885197966
30
0
10
-42.98255726413327
20
-4.264968916080579
30
0
10
-42.377455304796413
20
-6.8842452451082314
30
0
10
-41.766044001322129
20
-9.3895770791034856
30
0
10
-41.108471570581024
20
-11.768796202706621
30
0
10
-40.372519086720622
20
-14.019353219878719
30
0
10
-39.53810423431095
20
-16.149602700929027
30
0
10
-38.601416128717844
20
-18.179844468802344
30
0
10
-37.5711385212457
20
-20.138181272393627
30
0
10
-36.465025431695757
20
-22.056616194227452
30
0
10
-35.306330419940039
20
-23.967030688025272
30
0
10
-34.120344287292134
20
-25.897285900270063
30
0
10
-32.930788724675843
20
-27.867102668597926
30
0
10
-31.756502962348442
20
-29.884422299660642
30
0
10
-30.607440381945871
20
-31.940608954401281
30
0
10
-29.482870556939549
20
-34.009362844569232
30
0
10
-28.373664762022873
20
-36.052521789138339
30
0
10
-27.26368611332051
20
-38.024339091786857
30
0
10
-26.131522514547871
20
-39.876376732482129
30
0
10
-24.952098317258855
20
-41.56211300819264
30
0
10
-23.69827029993457
20
-43.041720878552084
30
0
10
-22.342583992715028
20
-44.286664056732839
30
0
10
-20.858546161553775
20
-45.284670972103349
30
0
10
-19.226692955123269
20
-46.041579522027824
30
0
10
-17.441576404732757
20
-46.582826317287207
30
0
10
-15.518103132977828
20
-46.954863135214836
30
0
10
-13.498897764979059
20
-47.227079833819225
30
0
10
-11.459511999040808
20
-47.492439721179302
30
0
10
-9.518864862521351
20
-47.871366364806178
30
0
10
-8.0780792245974862
20
-48.41034600684403
30
0
10
-7.1944252837661615
20
-49.031723596097208
30
0
10
-6.7149926736433549
20
-49.586826742478188
30
0
10
-6.4929377442342275
20
-49.938917860241773
30
0
10
-6.4484462271282315
20
-50.014579709068521
30
0
0
ENDSEC
0
SECTION
2
OBJECTS
0
DICTIONARY
5
C
100
AcDbDictionary
3
ACAD_GROUP
350
D
3
ACAD_MLINESTYLE
350
17
0
DICTIONARY
5
D
100
AcDbDictionary
0
DICTIONARY
5
1A
330
C
100
AcDbDictionary
0
DICTIONARY
5
17
100
AcDbDictionary
0
ENDSEC
0
EOF
