0
SECTION
2
HEADER
9
$INSUNITS
70
4
9
$ACADVER
1
AC1014
9
$HANDSEED
5
FFFF
0
ENDSEC
0
SECTION
2
TABLES
0
TABLE
2
VPORT
5
8
100
AcDbSymbolTable
0
ENDTAB
0
TABLE
2
LTYPE
5
5
100
AcDbSymbolTable
0
LTYPE
5
14
100
AcDbSymbolTableRecord
100
AcDbLinetypeTableRecord
2
BYBLOCK
70
0
0
LTYPE
5
15
100
AcDbSymbolTableRecord
100
AcDbLinetypeTableRecord
2
BYLAYER
70
0
0
LTYPE
5
16
100
AcDbSymbolTableRecord
100
AcDbLinetypeTableRecord
2
DASHED
70
0
3
Dashed __ __ __ __ __ __ __ __ __ __ __ __ __ _
72
65
73
2
40
0.75
49
0.5
74
0
49
-0.25
74
0
0
ENDTAB
0
TABLE
2
LAYER
5
2
100
AcDbSymbolTable
70
3
0
LAYER
5
50
100
AcDbSymbolTableRecord
100
AcDbLayerTableRecord
2
1
70
0
62
7
6
DASHED
0
LAYER
5
51
100
AcDbSymbolTableRecord
100
AcDbLayerTableRecord
2
0
70
0
62
7
6
CONTINUOUS
0
ENDTAB
0
TABLE
2
STYLE
5
3
100
AcDbSymbolTable
70
1
0
STYLE
5
11
100
AcDbSymbolTableRecord
100
AcDbTextStyleTableRecord
2
STANDARD
70
0
0
ENDTAB
0
TABLE
2
VIEW
5
6
100
AcDbSymbolTable
70
0
0
ENDTAB
0
TABLE
2
UCS
5
7
100
AcDbSymbolTable
70
0
0
ENDTAB
0
TABLE
2
APPID
5
9
100
AcDbSymbolTable
70
2
0
APPID
5
12
100
AcDbSymbolTableRecord
100
AcDbRegAppTableRecord
2
ACAD
70
0
0
ENDTAB
0
TABLE
2
DIMSTYLE
5
A
100
AcDbSymbolTable
70
1
0
ENDTAB
0
TABLE
2
BLOCK_RECORD
5
1
100
AcDbSymbolTable
70
1
0
BLOCK_RECORD
5
1F
100
AcDbSymbolTableRecord
100
AcDbBlockTableRecord
2
*MODEL_SPACE
0
BLOCK_RECORD
5
1B
100
AcDbSymbolTableRecord
100
AcDbBlockTableRecord
2
*PAPER_SPACE
0
ENDTAB
0
ENDSEC
0
SECTION
2
BLOCKS
0
BLOCK
5
20
100
AcDbEntity
100
AcDbBlockBegin
2
*MODEL_SPACE
0
ENDBLK
5
21
100
AcDbEntity
100
AcDbBlockEnd
0
BLOCK
5
1C
100
AcDbEntity
100
AcDbBlockBegin
2
*PAPER_SPACE
0
ENDBLK
5
1D
100
AcDbEntity
100
AcDbBlockEnd
0
ENDSEC
0
SECTION
2
ENTITIES
0
LWPOLYLINE
5
100
100
AcDbEntity
8
0
100
AcDbPolyline
90
4
70
1
43
0.0
10
-18.210854208877059
20
18.563453260654679
10
-8.9108018983914619
20
20.789106805044408
10
-3.2649399159023362
20
10.991797927845685
10
-18.809754307033344
20
7.2716714068912456
0
LWPOLYLINE
5
101
100
AcDbEntity
8
0
100
AcDbPolyline
90
4
70
1
43
0.0
10
24.878250336545907
20
5.9542380894763971
10
19.569757906862574
20
-0.44317586424454936
10
4.2086252593402929
20
12.30329590710372
10
9.5171176890236318
20
18.70070986082467
0
LWPOLYLINE
5
102
100
AcDbEntity
8
0
100
AcDbPolyline
90
10
70
1
43
0.0
10
11.502653976866881
20
-1.0667946621474957
10
11.502653965378817
20
-10.870548481143068
42
-1.0000000074505804
10
9.0267283868348009
20
-12.412450767953612
10
0.82357541706572057
20
-9.043906481497805
10
-2.579207539851077
20
-3.5798523885639808
10
0.98493277339845864
20
-1.3602557836054641
10
3.8542856999387332
20
-5.9677490621482345
42
0.99999999999999989
10
8.0003809978383735
20
-3.3857353819229901
10
5.1310280712980951
20
1.2217578966197569
10
8.6951683845476317
20
3.4413545015782745
0
LWPOLYLINE
5
103
100
AcDbEntity
8
0
100
AcDbPolyline
90
4
70
1
43
0.0
10
-14.152112310608342
20
29.488726255214758
10
-14.152112310608342
20
40.276742649604827
10
7.2629053081063111
20
40.276742649604827
10
7.2629053081063111
20
29.488726255214758
0
LWPOLYLINE
5
104
100
AcDbEntity
8
0
100
AcDbPolyline
90
4
70
1
43
0.0
10
-15.810441199886112
20
-16.282062703651818
42
0.88124709410268265
10
-13.62281505199806
20
-23.911105044157782
42
0.8812470941026832
10
-5.9284047543590308
20
-21.965842756510522
10
-7.0802362752167722
20
-12.535928433063116
0
SPLINE
5
105
100
AcDbEntity
8
0
100
AcDbSpline
70
0
71
3
72
10
73
6
74
0
42
0.000000001
43
0.0000000001
44
0.0000000001
40
-1.2128455420965629
40
-1.2128455420965629
40
-1.2128455420965629
40
-1.2128455420965629
40
-0.61093240503021751
40
-0.61093240503021751
40
0
40
0
40
0
40
0
10
25.129508339160012
20
-19.15711075457947
30
0
10
26.109003286125652
20
-17.426594075253266
30
0
10
26.656297280299611
20
-15.609477816542249
30
0
10
27.314596318650935
20
-11.668117678409335
30
0
10
27.402325456773085
20
-9.6540887888726203
30
0
10
27.523122474368211
20
-7.6212332964826226
30
0
0
ARC
5
106
100
AcDbEntity
8
0
100
AcDbCircle
10
4.3538100766507897e-15
20
14
30
0
40
35.000000000000007
210
-0
220
0
230
1
100
AcDbArc
50
-38.151978306819153
51
218.15197830681797
0
SPLINE
5
107
100
AcDbEntity
8
0
100
AcDbSpline
70
0
71
3
72
10
73
6
74
0
42
0.000000001
43
0.0000000001
44
0.0000000001
40
-1.200618895659344
40
-1.200618895659344
40
-1.200618895659344
40
-1.200618895659344
40
-0.56890366716060881
40
-0.56890366716060881
40
0
40
0
40
0
40
0
10
-27.523122474368648
20
-7.6212332964820355
30
0
10
-27.396939499738732
20
-9.7447273870645983
30
0
10
-27.306957027352716
20
-11.845691143408512
30
0
10
-26.605946701508355
20
-15.775566173768938
30
0
10
-26.063613875172788
20
-17.506785538172039
30
0
10
-25.129508339160019
20
-19.157110754579453
30
0
0
SPLINE
5
108
100
AcDbEntity
8
0
100
AcDbSpline
70
0
71
3
72
14
73
10
74
0
42
0.000000001
43
0.0000000001
44
0.0000000001
40
-3.4865442266669371
40
-3.4865442266669371
40
-3.4865442266669371
40
-3.4865442266669371
40
-2.7112498430869358
40
-2.7112498430869358
40
-1.9741329320738523
40
-1.9741329320738523
40
-1.071500470111812
40
-1.071500470111812
40
0
40
0
40
0
40
0
10
-25.129508339160019
20
-19.15711075457946
30
0
10
-24.040299465822962
20
-22.638512664236529
30
0
10
-22.606959285334078
20
-26.202191185536531
30
0
10
-19.00076069761522
20
-32.32043325320457
30
0
10
-17.275533975217201
20
-34.236330802000012
30
0
10
-13.892161594994581
20
-37.190290548565748
30
0
10
-11.821115918395526
20
-38.36403442727628
30
0
10
-6.7070340790237637
20
-40.064621107350469
30
0
10
-3.5679980316306481
20
-40.439757384503139
30
0
10
-5.5130557969134891e-14
20
-40.277880832942891
30
0
0
SPLINE
5
109
100
AcDbEntity
8
0
100
AcDbSpline
70
0
71
3
72
14
73
10
74
0
42
0.000000001
43
0.0000000001
44
0.0000000001
40
-4.2216195704951485
40
-4.2216195704951485
40
-4.2216195704951485
40
-4.2216195704951485
40
-3.2471908718818434
40
-3.2471908718818434
40
-2.3348779137547599
40
-2.3348779137547599
40
-1.3896909062125677
40
-1.3896909062125677
40
0
40
0
40
0
40
0
10
3.5527136788005009e-14
20
-40.277880832942891
30
0
10
2.3547213154569531
20
-40.384712216551421
30
0
10
4.7702082280238125
20
-40.260494820805107
30
0
10
9.2504705689841877
20
-39.334533756424229
30
0
10
11.304405023794683
20
-38.582295529688047
30
0
10
15.174038885262544
20
-36.240075743026019
30
0
10
17.124120355091421
20
-34.537616564808744
30
0
10
21.763714250588308
20
-28.274000722030209
30
0
10
23.746338094667383
20
-23.578091567749308
30
0
10
25.129508339160012
20
-19.15711075457947
30
0
0
ENDSEC
0
SECTION
2
OBJECTS
0
DICTIONARY
5
C
100
AcDbDictionary
3
ACAD_GROUP
350
D
3
ACAD_MLINESTYLE
350
17
0
DICTIONARY
5
D
100
AcDbDictionary
0
DICTIONARY
5
1A
330
C
100
AcDbDictionary
0
DICTIONARY
5
17
100
AcDbDictionary
0
ENDSEC
0
EOF
