0
SECTION
2
HEADER
9
$INSUNITS
70
4
9
$ACADVER
1
AC1014
9
$HANDSEED
5
FFFF
0
ENDSEC
0
SECTION
2
TABLES
0
TABLE
2
VPORT
5
8
100
AcDbSymbolTable
0
ENDTAB
0
TABLE
2
LTYPE
5
5
100
AcDbSymbolTable
0
LTYPE
5
14
100
AcDbSymbolTableRecord
100
AcDbLinetypeTableRecord
2
BYBLOCK
70
0
0
LTYPE
5
15
100
AcDbSymbolTableRecord
100
AcDbLinetypeTableRecord
2
BYLAYER
70
0
0
ENDTAB
0
TABLE
2
LAYER
5
2
100
AcDbSymbolTable
70
2
0
LAYER
5
50
100
AcDbSymbolTableRecord
100
AcDbLayerTableRecord
2
0
70
0
6
CONTINUOUS
0
ENDTAB
0
TABLE
2
STYLE
5
3
100
AcDbSymbolTable
70
1
0
STYLE
5
11
100
AcDbSymbolTableRecord
100
AcDbTextStyleTableRecord
2
STANDARD
70
0
0
ENDTAB
0
TABLE
2
VIEW
5
6
100
AcDbSymbolTable
70
0
0
ENDTAB
0
TABLE
2
UCS
5
7
100
AcDbSymbolTable
70
0
0
ENDTAB
0
TABLE
2
APPID
5
9
100
AcDbSymbolTable
70
2
0
APPID
5
12
100
AcDbSymbolTableRecord
100
AcDbRegAppTableRecord
2
ACAD
70
0
0
ENDTAB
0
TABLE
2
DIMSTYLE
5
A
100
AcDbSymbolTable
70
1
0
ENDTAB
0
TABLE
2
BLOCK_RECORD
5
1
100
AcDbSymbolTable
70
1
0
BLOCK_RECORD
5
1F
100
AcDbSymbolTableRecord
100
AcDbBlockTableRecord
2
*MODEL_SPACE
0
BLOCK_RECORD
5
1B
100
AcDbSymbolTableRecord
100
AcDbBlockTableRecord
2
*PAPER_SPACE
0
ENDTAB
0
ENDSEC
0
SECTION
2
BLOCKS
0
BLOCK
5
20
100
AcDbEntity
100
AcDbBlockBegin
2
*MODEL_SPACE
0
ENDBLK
5
21
100
AcDbEntity
100
AcDbBlockEnd
0
BLOCK
5
1C
100
AcDbEntity
100
AcDbBlockBegin
2
*PAPER_SPACE
0
ENDBLK
5
1D
100
AcDbEntity
100
AcDbBlockEnd
0
ENDSEC
0
SECTION
2
ENTITIES
0
LWPOLYLINE
5
100
100
AcDbEntity
8
0
100
AcDbPolyline
90
4
70
1
43
0.0
10
-21.250000000000007
20
148.56197270973686
42
0.05737219859073401
10
-19.75
20
150.28882271369503
10
-19.75
20
161.59147726915236
42
0.057372198590733031
10
-21.25
20
163.31832727311053
0
LWPOLYLINE
5
101
100
AcDbEntity
8
0
100
AcDbPolyline
90
4
70
1
43
0.0
10
38.749999999999993
20
148.56197270973686
42
0.057372198590731185
10
40.25
20
150.28882271369508
10
40.250000000000014
20
161.59147726915236
42
0.057372198590732296
10
38.750000000000014
20
163.31832727311053
0
LWPOLYLINE
5
102
100
AcDbEntity
8
0
100
AcDbPolyline
90
4
70
1
43
0.0
10
26.750000000000004
20
147.42912772614909
10
26.749999999999968
20
164.45117225669836
42
-0.042104438907631936
10
28.249999999999993
20
165.21039810029333
10
28.250000000000036
20
146.66990188255417
42
-0.042104438907629604
0
LWPOLYLINE
5
103
100
AcDbEntity
8
0
100
AcDbPolyline
90
4
70
1
43
0.0
10
29.750000000000007
20
146.19656235647113
10
29.749999999999993
20
165.68373762637631
42
-0.037986391496083016
10
31.25
20
165.91198532901331
10
31.25
20
145.96831465383414
42
-0.037986391496080463
0
LWPOLYLINE
5
104
100
AcDbEntity
8
0
100
AcDbPolyline
90
4
70
1
43
0.0
10
-36.249999999999972
20
150.28882271369503
42
0.057372198590731928
10
-34.749999999999993
20
148.56197270973684
10
-34.750000000000021
20
163.31832727311055
42
0.057372198590731185
10
-36.249999999999986
20
161.59147726915236
0
LWPOLYLINE
5
105
100
AcDbEntity
8
0
100
AcDbPolyline
90
4
70
1
43
0.0
10
-25.75
20
165.68373762637631
10
-25.749999999999996
20
146.19656235647116
42
-0.037986391496082017
10
-27.249999999999996
20
145.96831465383414
10
-27.249999999999993
20
165.91198532901328
42
-0.037986391496081018
0
LWPOLYLINE
5
106
100
AcDbEntity
8
0
100
AcDbPolyline
90
4
70
1
43
0.0
10
-30.249999999999993
20
146.19656235647113
10
-30.249999999999979
20
165.68373762637623
42
-0.037986391496080907
10
-28.749999999999996
20
165.91198532901331
10
-28.750000000000014
20
145.96831465383406
42
-0.037986391496081462
0
LWPOLYLINE
5
107
100
AcDbEntity
8
0
100
AcDbPolyline
90
4
70
1
43
0.0
10
35.749999999999986
20
146.66990188255414
42
0.042104438907628619
10
37.25
20
147.42912772614912
10
37.250000000000007
20
164.45117225669833
42
0.042104438907630277
10
35.750000000000014
20
165.21039810029328
0
LWPOLYLINE
5
108
100
AcDbEntity
8
0
100
AcDbPolyline
90
4
70
1
43
0.0
10
32.75
20
145.96831465383414
42
0.037986391496080497
10
34.25
20
146.19656235647116
10
34.250000000000007
20
165.68373762637628
42
0.037986391496082884
10
32.75
20
165.91198532901325
0
LWPOLYLINE
5
109
100
AcDbEntity
8
0
100
AcDbPolyline
90
4
70
1
43
0.0
10
23.750000000000004
20
150.28882271369503
10
23.75
20
161.59147726915236
42
-0.057372198590735481
10
25.249999999999989
20
163.31832727311055
10
25.250000000000078
20
148.56197270973692
42
-0.057372198590733475
0
LWPOLYLINE
5
110
100
AcDbEntity
8
0
100
AcDbPolyline
90
4
70
1
43
0.0
10
-33.249999999999986
20
147.42912772614909
10
-33.249999999999986
20
164.45117225669833
42
-0.042104438907629493
10
-31.749999999999986
20
165.21039810029333
10
-31.750000000000011
20
146.66990188255409
42
-0.042104438907629493
0
LWPOLYLINE
5
111
100
AcDbEntity
8
0
100
AcDbPolyline
90
4
70
1
43
0.0
10
-24.250000000000014
20
146.66990188255414
42
0.042104438907630611
10
-22.750000000000018
20
147.42912772614912
10
-22.750000000000007
20
164.45117225669833
42
0.042104438907629951
10
-24.250000000000004
20
165.21039810029333
0
LWPOLYLINE
5
112
100
AcDbEntity
8
0
100
AcDbPolyline
90
12
70
1
43
0.0
10
-47
20
145.94014999142371
10
-47
20
139.7104307566415
10
51.000000000000007
20
139.7104307566415
10
51.000000000000007
20
145.94014999142371
10
55.000000000000007
20
145.94014999142371
10
55.000000000000007
20
165.94014999142371
10
51.000000000000007
20
165.94014999142371
10
51.000000000000007
20
172.16986922620592
10
-47
20
172.16986922620589
10
-47
20
165.94014999142365
10
-51.000000000000007
20
165.94014999142371
10
-51.000000000000007
20
145.94014999142371
0
ENDSEC
0
SECTION
2
OBJECTS
0
DICTIONARY
5
C
100
AcDbDictionary
3
ACAD_GROUP
350
D
3
ACAD_MLINESTYLE
350
17
0
DICTIONARY
5
D
100
AcDbDictionary
0
DICTIONARY
5
1A
330
C
100
AcDbDictionary
0
DICTIONARY
5
17
100
AcDbDictionary
0
ENDSEC
0
EOF
