0
SECTION
2
HEADER
9
$INSUNITS
70
4
9
$ACADVER
1
AC1014
9
$HANDSEED
5
FFFF
0
ENDSEC
0
SECTION
2
TABLES
0
TABLE
2
VPORT
5
8
100
AcDbSymbolTable
0
ENDTAB
0
TABLE
2
LTYPE
5
5
100
AcDbSymbolTable
0
LTYPE
5
14
100
AcDbSymbolTableRecord
100
AcDbLinetypeTableRecord
2
BYBLOCK
70
0
0
LTYPE
5
15
100
AcDbSymbolTableRecord
100
AcDbLinetypeTableRecord
2
BYLAYER
70
0
0
ENDTAB
0
TABLE
2
LAYER
5
2
100
AcDbSymbolTable
70
2
0
LAYER
5
50
100
AcDbSymbolTableRecord
100
AcDbLayerTableRecord
2
0
70
0
6
CONTINUOUS
0
ENDTAB
0
TABLE
2
STYLE
5
3
100
AcDbSymbolTable
70
1
0
STYLE
5
11
100
AcDbSymbolTableRecord
100
AcDbTextStyleTableRecord
2
STANDARD
70
0
0
ENDTAB
0
TABLE
2
VIEW
5
6
100
AcDbSymbolTable
70
0
0
ENDTAB
0
TABLE
2
UCS
5
7
100
AcDbSymbolTable
70
0
0
ENDTAB
0
TABLE
2
APPID
5
9
100
AcDbSymbolTable
70
2
0
APPID
5
12
100
AcDbSymbolTableRecord
100
AcDbRegAppTableRecord
2
ACAD
70
0
0
ENDTAB
0
TABLE
2
DIMSTYLE
5
A
100
AcDbSymbolTable
70
1
0
ENDTAB
0
TABLE
2
BLOCK_RECORD
5
1
100
AcDbSymbolTable
70
1
0
BLOCK_RECORD
5
1F
100
AcDbSymbolTableRecord
100
AcDbBlockTableRecord
2
*MODEL_SPACE
0
BLOCK_RECORD
5
1B
100
AcDbSymbolTableRecord
100
AcDbBlockTableRecord
2
*PAPER_SPACE
0
ENDTAB
0
ENDSEC
0
SECTION
2
BLOCKS
0
BLOCK
5
20
100
AcDbEntity
100
AcDbBlockBegin
2
*MODEL_SPACE
0
ENDBLK
5
21
100
AcDbEntity
100
AcDbBlockEnd
0
BLOCK
5
1C
100
AcDbEntity
100
AcDbBlockBegin
2
*PAPER_SPACE
0
ENDBLK
5
1D
100
AcDbEntity
100
AcDbBlockEnd
0
ENDSEC
0
SECTION
2
ENTITIES
0
LWPOLYLINE
5
100
100
AcDbEntity
8
0
100
AcDbPolyline
90
4
70
1
43
0.0
10
-11.500000000000002
20
3.9999999999999951
10
-11.500000000000002
20
5.9999999999999956
10
18.5
20
5.9999999999999956
10
18.499999999999996
20
3.9999999999999951
0
LWPOLYLINE
5
101
100
AcDbEntity
8
0
100
AcDbPolyline
90
4
70
1
43
0.0
10
27.217338908618775
20
110.34843756572999
10
25.4852881010499
20
111.34843756572999
10
40.485288101049896
20
137.32919967926316
10
42.217338908618771
20
136.32919967926316
0
LWPOLYLINE
5
102
100
AcDbEntity
8
0
100
AcDbPolyline
90
4
70
1
43
0.0
10
12.505340010293171
20
183.11893145061197
10
10.836162407634582
20
182.01718459639233
10
-0.18130613456202482
20
198.7089606229782
10
1.4878714680965643
20
199.81070747719787
0
LWPOLYLINE
5
103
100
AcDbEntity
8
0
100
AcDbPolyline
90
4
70
1
43
0.0
10
-10.49999999999997
20
129.91858428704208
10
-12.232050807568848
20
130.91858428704208
10
2.7679491924311073
20
156.89934640057527
10
4.4999999999999911
20
155.89934640057527
0
LWPOLYLINE
5
104
100
AcDbEntity
8
0
100
AcDbPolyline
90
4
70
1
43
0.0
10
36.607371152732775
20
198.23780768569981
10
35.70901358961094
20
196.45092389295286
10
13.372966180273806
20
207.68039343197583
10
14.27132374339565
20
209.46727722472278
0
LWPOLYLINE
5
105
100
AcDbEntity
8
0
100
AcDbPolyline
90
4
70
1
43
0.0
10
-42.999999999999943
20
5
10
-44.999999999999943
20
5
10
-44.999999999999957
20
75
10
-42.999999999999957
20
75
0
LWPOLYLINE
5
106
100
AcDbEntity
8
0
100
AcDbPolyline
90
17
70
1
43
0.0
10
49.999999999999901
20
193.62941942776874
42
0.28348519549941709
10
48.89835756312177
20
195.41630322051574
10
1.7868837927604364
20
219.10164243687134
42
0.41421356237531937
10
-0.89835756311518311
20
218.21311620723264
10
-8.086307211915976
20
203.91587949657037
42
0.40987161269428463
10
-7.2242109784255417
20
201.24417256849426
42
-0.38461178632851295
10
2.1117252400716979
20
176.1186603468376
10
-18.159303043822369
20
125.15653529563394
42
-0.28348519550146389
10
-34.999999999999972
20
112.62465990577768
10
-63.174311485495245
20
110.15972704814865
42
0.38887873185298671
10
-64.999999999999943
20
108.16733765196517
10
-64.999999999999972
20
92.000000000000014
42
0.41421356237309509
10
-62.999999999999979
20
90.000000000000014
10
-59.999999999999972
20
89.999999999999986
42
-0.41421356237309476
10
-49.999999999999972
20
79.999999999999986
10
-49.999999999999936
20
-8.8817841970012523e-15
10
49.999999999999936
20
0
0
LWPOLYLINE
5
107
100
AcDbEntity
8
0
100
AcDbPolyline
90
4
70
1
43
0.0
10
-3.613092919358559
20
203.90821453175312
10
-5.3999767121123554
20
204.80657209486139
10
-0.0098313334628130633
20
215.52787485138418
10
1.7770524592909831
20
214.62951728827591
0
LWPOLYLINE
5
108
100
AcDbEntity
8
0
100
AcDbPolyline
90
4
70
1
43
0.0
10
-54.689430048091829
20
106.88677863510947
10
-54.863741533587145
20
108.87916803129295
10
-29.958874081293501
20
111.05806159998444
10
-29.784562595798178
20
109.06567220380096
0
LWPOLYLINE
5
109
100
AcDbEntity
8
0
100
AcDbPolyline
90
4
70
1
43
0.0
10
-59.999999999999957
20
106.99999999999997
10
-59.999999999999957
20
93
10
-61.999999999999957
20
93
10
-61.999999999999957
20
106.99999999999997
0
ENDSEC
0
SECTION
2
OBJECTS
0
DICTIONARY
5
C
100
AcDbDictionary
3
ACAD_GROUP
350
D
3
ACAD_MLINESTYLE
350
17
0
DICTIONARY
5
D
100
AcDbDictionary
0
DICTIONARY
5
1A
330
C
100
AcDbDictionary
0
DICTIONARY
5
17
100
AcDbDictionary
0
ENDSEC
0
EOF
